» » »

By Your Side Bass tabs (ver.1)

Artists:  A B C D E F G H I J K L M N O P Q R S T U V W X Y Z # 

By Your Side Bass tabs (ver.1)

Tenth Avenue North
Rating:
4/5 (4 votes)

Tabs too difficult? Try these video lessons and learn fast.
                Intro:
G|-0-0---0-0---|-------------|-------------|-------------|
D|-------------|-2-2---2-2---|-0-0---0-0---|-------------|
A|-------------|-------------|-------------|-3-3---3-3---|
E|-------------|-------------|-------------|-------------|

First Verse:
G|-0-0---0-0---|-0-0---0-0---|-0-0---0-0---|-------------|-------------|
D|-------------|-------------|-------------|-2-2---2-2---|-2-2---2-2---|
A|-------------|-------------|-------------|-------------|-------------|
E|-------------|-------------|-------------|-------------|-------------|
                Why are you striving...
G|-------------|-------------|
D|-0-0---0-0---|-------------|
A|-------------|-3-3---3-3---|
E|-------------|-------------| 

G|-0-0---0-0---|-0-0---0-0---|-0-0---0-0---|-0-0---0-0---|-------------|
D|-------------|-------------|-------------|-------------|-2-2---2-2---|
A|-------------|-------------|-------------|-------------|-------------|
E|-------------|-------------|-------------|-------------|-------------|
                              Why are you looking...
G|-------------|-------------|-------------|-0-0---0-0---|
D|-2-2---2-2---|-0-0---0-0---|-------------|-------------|
A|-------------|-------------|-3-3---3-3---|-------------|
E|-------------|-------------|-------------|-------------|

Chorus:
G|-------------|-0-----------|-------------|-0-----------|
D|-2-----------|--------0----|--2----------|--------0----|
A|--------3----|-------------|--------3----|-------------|
E|-------------|-------------|-------------|-------------|
  And I’ll be by your side...

Second Verse:
G|-0-0---0-0---|-0-0---0-0---|-0-0---0-0---|-0-0---0-0---|-------------|
D|-------------|-------------|-------------|-------------|-2-2---2-2---|
A|-------------|-------------|-------------|-------------|-------------|
E|-------------|-------------|-------------|-------------|-------------|
                              Look at these hands...
G|-------------|-------------|-------------|-0-0---0-0---|-------------|
D|-2-2---2-2---|-0-0---0-0---|-------------|-------------|-0-0---0-0---|
A|-------------|-------------|-3-3---3-3---|-------------|-------------|
E|-------------|-------------|-------------|-------------|-------------|

Chorus:
G|-------------|-0-----------|-------------|-0-----------|
D|-2-----------|--------0----|--2----------|--------0----|
A|--------3----|-------------|--------3----|-------------|
E|-------------|-------------|-------------|-------------|

G|-------------|-0-----------|-------------|-0-----------|-0-----------|
D|-2-----------|--------0----|--2----------|--------0----|-------------|
A|--------3----|-------------|--------3----|-------------|-------------|
E|-------------|-------------|-------------|-------------|-------------|


Bridge:
G|-------------|-------------|-------------|-------------|
D|-0-----------|-2-----------|-------------|-0-----------|
A|-------------|-------------|-3-----------|-------------|
E|-------------|-------------|-------------|-------------|
     I, I love you...
G|-------------|-------------|-------------|-------------|
D|-0-----------|-2-----------|-------------|-0-----------|
A|-------------|-------------|-3-----------|-------------|
E|-------------|-------------|-------------|-------------|

Chorus:
G|-------------|-0-----------|-------------|-0-----------|
D|-2-----------|--------0----|--2----------|--------0----|
A|--------3----|-------------|--------3----|-------------|
E|-------------|-------------|-------------|-------------|
  And I'll be by your side...
G|-------------|-0-----------|-------------|-0-----------|
D|-2-----------|--------0----|--2----------|--------0----|
A|--------3----|-------------|--------3----|-------------|
E|-------------|-------------|-------------|-------------|

Outro:
G|-------------|-0-----------|-------------|-0-----------|
D|-2-----------|--------0----|--2----------|-------------|
A|--------3----|-------------|--------3----|-------------|
E|-------------|-------------|-------------|-------------|
                Here at my side...
            
Tabs too difficult? Try these video lessons and learn fast.




comments powered by Disqus
↑ Back to top | Tablatures and chords are parodies/interpretations of the original songs. You may use it for private study, scholarship, research or language learning purposes only