» » »

Tenth Avenue North, By Your Side Tabs (ver.5)

Artists:  A B C D E F G H I J K L M N O P Q R S T U V W X Y Z # 

By Your Side Tabs (ver.5)

Tenth Avenue North Tabs
 Rating:
4.1/5 (35 votes)
By Your Side lessons Tabs too difficult? Try these video lessons and learn fast
                (Intro)
I did this by ear so I know its not quite right, but it sounds pretty good.

   G                                    Em
E ---------------------------------------------------------------------------|
B ------3-------3------3-------3-----------0---------------0-----------------|
G ----0---0-4-0--0----0--0-4-0----0------0---0-4-0-2-0---0---0-4-0-2-0-------|
D --5---------------5-------------------2--------------2---------------------|
A ---------------------------------------------------------------------------|
E ---------------------------------------------------------------------------|

    D                                  C
E ---------------------------------------------------------------------------|
B ----------0---------------0-----------------0----------------0-------------|
G ----0-2-0---0-2-0---0-2-0---0-2-0--------0-----0---------0------0----------|
D --0---------------0--------------------2---2--2--2-----2---2---2--2--------|
A -------------------------------------3----------------3--------------------|
E ---------------------------------------------------------------------------|

Thats it. It just repeats for the whole song.
            
Submit corrections

comments powered by Disqus
↑ Back to top | Tenth Avenue North Tabs for By Your Side. Lyrics for acoustic guitar and electric guitar. Tablatures and chords are parodies/interpretations of the original songs. You may use it for private study, scholarship, research or language learning purposes only