>
 >
Wonderboy 2

Wonderboy 2 Bass Tabs

Tenacious D - Wonderboy 2 chords, tabs, tablatures, lyrics

Guitar lessons | Add/correct | Request | Top 50 tabs Artists:  A B C D E F G H I J K L M N O P Q R S T U V W X Y Z 0-9

Wonderboy 2 Bass Tabs – Tenacious D

CD, Sheet music, Poster

Do you like Wonderboy 2? Share with your friends now
Bass TabsBass Tabs v2Bass Tabs v3ChordsDrum TabsTabsTabs v2Tabs v3Tabs v4Tabs v5Ukulele
Intro (while guitar is soloing)

G|---------------------------|
D|---------------------------|
A|------1---------1----------|
D|-0---------0---------------| X2

Then play either part:
G|-------------------------------------------------------|
D|-0/12---12h13-13---15-13-12---12h13-13----17-13-15-----|
A|-------------------------------------------------------|
D|--------0-h1--1----3--1--0----0-h1--1-----5--1--0------|

Verse 1

High above the mucky muck, castle made of clouds
     There sits wonderboy, sitting oh so proudly
G|------------------------------------------------|
D|------------------------------------------------|
A|-------------------------1----------------------|
D|-0----------------------------------------------|

     Not much to say when you're high above the mucky muck,     Yea
G|----------------------------------------------------------------------|
D|-0-0-0-0-0-0-0-0------------------------------------------------------|
A|-----------------4-4-4-4-4-4-4-4-2-2-2-2-2-2-2-2-0-0-0-0-0-0-0----0---|
D|----------------------------------------------------------------5-----|

Chorus

    Wonderboy What is the secret of your power
G|---------------------------------------------|
D|---------------------------------------------|
A|-----------1---------------------------------|
D|-0-------------------------------------------|

   Wonderboy, won't you take me far away from the mucky muck, yea
G|----------------------------------------------------------------------|
D|-0-0-0-0-0-0-0-0------------------------------------------------------|
A|-----------------4-4-4-4-4-4-4-4-2-2-2-2-2-2-2-2-0-0-0-0-0-0-0----0---|
D|----------------------------------------------------------------5-----|

Filler
G|----------------------------------------------|
D|-0--1--1----3--1--0----0--1--1-----5--1--0----|
A|-0---------------------0----------------------|
D|-0---------------------0----------------------|

Verse 2

  Now it's time for me to tell you about young nasty man
  Archrival and nemesis of wonderboy
  With powers comparable to wonderboy!
G|------------------------------------------------|
D|------------------------------------------------|
A|----------1--------------------------1----------|
D|-0------------------------0---------------------|

What powers you ask?  How about the power of flight
That do anything for ya?  That's levistation holmes
G|----------------------------------------------------------------------|
D|-0-0-0-0-0-0-0-0------------------------------------------------------|
A|-------------------3-3-3-3-3-3-3-3-2-2-2-2-2-2-2-2-0-0-0-0-0-0-0------|
D|----------------------------------------------------------------------|

How about the power to kill a yak from 200 yards away
With Mind bullets! That's telekinses Kyle
G|------------------------------------------------------------|
D|------------------------------------------------------------|
A|------------------------------------------------------------|
D|-5-5-5-5-5-5-5-5-4-4-4-4-4-4-4-4-2-2-2-2-2-2-2-2--2(hold)---|

         How about the power to   move you
G|-----------------------------------|
D|-----------------------------------|
A|------------------------------7----|
D|-2-4-5------------------------7----|

History of Wonderboy and young nasty man, a riga goo goo, rriga goo goo goo
G|-----3----2-5------3---2-5-|
D|-0------------0------------|
A|---------------------------|
D|---------------------------|

A Secret to be told, a gold chest to behold
And blasting forth with three part harmony, WOAH!
G|-------------------------------------------------------------------------|
D|-0-0-0-0-0-0-0-0---------------------------------------------------------|
A|-------------------4-4-4-4-4-4-4-4-2-2-2-2-2-2-2-2-0-0-0-0-0-0-0-2-2-4-4-|
D|-------------------------------------------------------------------------|

Chorus

Filler
G|----------------------------------------------|
D|-0-h1--1----3--1--0----0-h1--1-----5--1--0----|
A|-0---------------------0----------------------|
D|-0---------------------0----------------------|

Bridge
Well wonderboy and young nasty man joined forces
And they formed a band the likes of which had never been seen
And they called themselves Tenacious D
G|--------3---------------1-|
D|-2--------------2---------|
A|--------1---------------1-|
D|-0--------------0---------|

That's right, ME! And KG (That's me) What?  Ooh....
G|-------------------------------------------------------------------------|
D|-0-0-0-0-0-0-0-0---------------------------------------------------------|
A|-----------------4-4-4-4-4-4-4-4-2-2-2-2-2-2-2-2-0-0-0-0-0-0-0-----------|
D|-------------------------------------------------------------------------|

   Tenacious        D! Come Fly with me FLY!
G|-----------------------|
D|-----------------0-----|
A|-----------------0-----|
D|-5-5-5-5-5-5-5-5-0-----|

Solo

Chorus

Outro
Yea, oh, take my hand young nasty man - FLY!
Bring out your broad sword! There's the hydra
Slice his throat and grab his scroach
G|-------------------------------------------------------------------|
D|-0-0-0-0-0-0-0-0---------------------------------------------------|
A|-----------------4-4-4-4-4-4-4-4-2-2-2-2-2-2-2-2-0-0-0-0-0-0-0-----|
D|-------------------------------------------------------------------|

You take the high road, I'll take the low
There, the crevace!  Fill It!  With your mighty juice
G|--------------------------------------|
D|--------------------------------------|
A|-0---0h1-1---3-1-0---0h1-1---5-1-0----|
D|-0---0h1-1---3-1-0---0h1-1---5-1-0----|

G|-7-
D|-0-
A|-0-
D|-0-





Comments


Popular Tenacious D tabs & chords
Jesus Ranch Chords
Kong Chords
Rize Of The Fenix Chords
Hbo Episode 3 Tabs
Kielbasa (Intro) Tabs
One Note Song Tabs
Ozzys Promo Tabs
Sex Supreme Tabs
The Divide 1 Tabs
He Teaches Me Ukulele


Song lyrics



↑ Back to top | Tablatures and chords are parodies/interpretations of the original songs. You may use it for private study, scholarship, research or language learning purposes only
© 2014 AZChords.com Contact us | Privacy policy | DMCA | Add/correct tabs | Request tabs | Top 50 tabs