>
 >
Tribute 2

Tribute 2 Bass Tabs

Tenacious D - Tribute 2 chords, tabs, tablatures, lyrics

Guitar lessons | Add/correct | Request | Top 50 tabs Artists:  A B C D E F G H I J K L M N O P Q R S T U V W X Y Z 0-9

Tribute 2 Bass Tabs – Tenacious D

CD, Sheet music, Poster

Do you like Tribute 2? Share with your friends now
Bass TabsBass Tabs v2ChordsChords v2Drum TabsDrum Tabs v2TabsTabs v2Tabs v3Tabs v4Tabs v5Tabs v6Ukulele
Tenacious D  Tribute  Bass


This is the greatest and best song in the world...
G|-----------------0h2---------------------------------|
D|-------------0h2-------------------------------------|
A|----0-0-0-0------------------------------------------|
E|-----------------------------------------------------|

  Tribute.
G|-----------------0h2---------------------------------|
D|-------------0h2-------------------------------------|
A|----0-0-0-0------------------------------------------|
E|-----------------------------------------------------|

Long time ago me and my brother Kyle here,
G|-----------------0h2---------------------------------|
D|-------------0h2-------------------------------------|
A|----0-0-0-0------------------------------------------|
E|-----------------------------------------------------|

We were hitchhiking down a long and lonesome road.
G|-----------------0h2---------------------------------|
D|-------------0h2-------------------------------------|
A|----0-0-0-0------------------------------------------|
E|-----------------------------------------------------|

All of a sudden, there shined a shiny demon...
G|-----------------0h2---------------------------------|
D|-------------0h2-------------------------------------|
A|----0-0-0-0------------------------------------------|
E|-----------------------------------------------------|

In the middle of the road.
G|-----------------0h2---------------------------------|
D|-------------0h2-------------------------------------|
A|----0-0-0-0------------------------------------------|
E|-----------------------------------------------------|

And he said:

“Play the best song in the world, or I'll eat your souls."
G|------------------------------------------------------|
D|------------------------------------------------------|
A|----0-0-0-0-0-0-0-0-0-0-0-0-0-00-0-0-0-0-0-0-0-0-0----|
E|------------------------------------------------------|


Well me and Kyle well me we looked at each other,
G|-----------------0h2---------------------------------|
D|-------------0h2-------------------------------------|
A|----0-0-0-0------------------------------------------|
E|-----------------------------------------------------|

And we each said...   "Okay"


And we played the first thing that came to our heads,
G|----------------------------------------------------|
D|----------------------------------------------------|
A|----0-0-0-0-0-0-0-0-0-0-0-0-0-----------------------|
E|--------------------------------3-3-3-3-3-3-3-3-3-3-|

Just so happened to be,
G|------------------------------------------------------|
D|------------------------------------------------------|
A|------------------------------------------------------|
E|-1-1-1-1-1-1-1-1-1-1----------------------------------|

The Best Song in the World,
G|----------------------------------------------------|
D|----------------------------------------------------|
A|----0-0-0-0-0-0-0-0-0-0-0-0-0-----------------------|
E|--------------------------------3-3-3-3-3-3-3-3-3-3-|

It was The Best Song in the World.
G|------------------------------------------------------|
D|------------------------------------------------------|
A|------------------------------------------------------|
E|-1-1-1-1-1-1-1-1-1-1----------------------------------|


Look into my eyes and it's easy to see
G|-----------------------------------------------------|
D|-----------------------------------------------------|
A|-5-5-5-5-5-5-5----8-8-8-8-8--8-8-8-------------------|
E|-----------------------------------------------------|

One and one make two, two and one make three,

G|-----------------------------------------------------|
D|-----------------------------------------------------|
A|--3-3-3-3-3-3-3-3-3----------------------------------|
E|-----------------------3-3-3-3-3-3-3-3---------------|

It was destiny.
G|----------------------------------------------------|
D|----------------------------------------------------|
A|----------------------------------------------------|
E|-1-1-1-1--------------------------------------------|

Once every hundred-thousand years or so,
G|-----------------------------------------------------|
D|-----------------------------------------------------|
A|-5-5-5-5-5-5-5----8-8-8-8-8--8-8-8-------------------|
E|-----------------------------------------------------|

When the sun doth shine and the moon doth glow
G|-----------------------------------------------------|
D|-----------------------------------------------------|
A|--3-3-3-3-3-3-3-3-3----------------------------------|
E|-----------------------3-3-3-3-3-3-3-3---------------|

And the grass don't grow...
G|----------------------------------------------------|
D|----------------------------------------------------|
A|----------------------------------------------------|
E|-1-1-1-1--------------------------------------------|


Needless to say, the beast was stunned.
G|-----------------0h2---------------------------------|
D|-------------0h2-------------------------------------|
A|----0-0-0-0------------------------------------------|
E|-----------------------------------------------------|

Whip-crack went his schwumpy tail,
G|-----------------0h2---------------------------------|
D|-------------0h2-------------------------------------|
A|----0-0-0-0------------------------------------------|
E|-----------------------------------------------------|

And the beast was done.
G|-----------------0h2---------------------------------|
D|-------------0h2-------------------------------------|
A|----0-0-0-0------------------------------------------|
E|-----------------------------------------------------|

He asked us: "Be you angels?"
G|-----------------0h2---------------------------------|
D|-------------0h2-------------------------------------|
A|----0-0-0-0------------------------------------------|
E|-----------------------------------------------------|

And we said, "Nay. We are but men!"
G|-----------------0h2---------------------------------|
D|-------------0h2-------------------------------------|
A|----0-0-0-0------------------------------------------|
E|-----------------------------------------------------|


ROCK!

Ahhh, ahhh, ahhh-ah-ah,
G|-----------------------------------------------------|
D|-----------------------------------------------------|
A|-5-5--8-8-3-3----------------------------------------|
E|-----------------3-3---------------------------------|


Ohhh, whoah, ah-whoah-oh!
G|------------------------------------------------------|
D|------------------------------------------------------|
A|------------------------------------------------------|
E|-1-1-1-1-1-1-1-1-1-1----------------------------------|

This is not The Greatest Song in the World.
G|-----------------------------------------------------|
D|-----------------------------------------------------|
A|0-0-0-0-0--0-0-0-------------------------------------|
E|---------------------3-3-3-3-3-3-3-3-3---------------|

No, this is just a tribute.
G|-----------------------------------------------------|
D|-----------------------------------------------------|
A|0-0-0-0-0--0-0-0-------------------------------------|
E|---------------------3-3-3-3-3-3-3-3-3---------------|

Couldn't remember The Greatest Song in the World.
G|-----------------------------------------------------|
D|-----------------------------------------------------|
A|0-0-0-0-0--0-0-0-------------------------------------|
E|---------------------3-3-3-3-3-3-3-3-3---------------|

No, this is a tribute, oh.
G|-----------------------------------------------------|
D|-----------------------------------------------------|
A|0-0-0-0-0--0-0-0-------------------------------------|
E|---------------------3-3-3-3-3-3-3-3-3---------------|


To The Greatest Song in the World, All right!
G|-----------------------------------------------------|
D|-----------------------------------------------------|
A|0-0-0-0------------5-5-5-5---------------------------|
E|----------3-3-3-3------------1-1-1-1-----------------|

It was The Greatest Song in the World, All right!
G|-----------------------------------------------------|
D|-----------------------------------------------------|
A|0-0-0-0------------5-5-5-5---------------------------|
E|----------3-3-3-3------------1-1-1-1-----------------|

It was the best muthafuckin' song
G|-----------------------------------------------------|
D|-----------------------------------------------------|
A|0-0-0-0----------------------------------------------|
E|----------3-3-3-3------------------------------------|

The greatest song in the world.
G|-----------------------------------------------------|
D|-----------------------------------------------------|
A|-5-5-5-5---------------------------------------------|
E|-----------1-1-1-1-----------------------------------|


Solo:
G|-----------------------------------------------------|
D|-----------------------------------------------------|
A|0-0-0-0------------5-5-5-5---------------------------|
E|----------3-3-3-3------------1-1-1-1-----------------|


And the peculiar thing is this my friends:
G|-----------------------------------------------------|
D|-----------------------------------------------------|
A|0-0-0-0----------------------------------------------|
E|----------3-3-3-3------------------------------------|

The song we sang on that fateful night,

G|-----------------------------------------------------|
D|-----------------------------------------------------|
A|-5-5-5-5---------------------------------------------|
E|-----------1-1-1-1-----------------------------------|

It didn't actually sound anything like this song.

G|-----------------------------------------------------|
D|-----------------------------------------------------|
A|0-0-0-0------------5-5-5-5---------------------------|
E|----------3-3-3-3------------1-1-1-1-----------------|

Repeat till End :)





Comments


Popular Tenacious D tabs & chords
Dude (I Totally Miss You) Chords
Beelzeboss Tabs
Classico Tabs
Classico 2 Tabs
Cosmic Shame Tabs
Destiny Intro Tabs
Explosivo! Tabs
One Note Song 1 Tabs
Exultant Joy Ukulele
Master Exploder Ukulele


Song lyrics



↑ Back to top | Tablatures and chords are parodies/interpretations of the original songs. You may use it for private study, scholarship, research or language learning purposes only
© 2014 AZChords.com Contact us | Privacy policy | DMCA | Add/correct tabs | Request tabs | Top 50 tabs