» » »

Tenacious D, They Fucked Our Asses Chords (ver.1)

Artists:  A B C D E F G H I J K L M N O P Q R S T U V W X Y Z # 

They Fucked Our Asses Chords (ver.1)

Tenacious D Tabs
 Rating:
4/5 (4 votes)
They Fucked Our Asses lessons Tabs too difficult? Try these video lessons and learn fast
                -------------------------------------------------------------------------------
-------------------------------------------------------------------------------

Tuning: Standard

Note: play the Fmaj/C bar as following to sound like the song:

    Q   Q.    E E E
e||-----------------|
B||-1---1-----1-1-1-|
G||-2---2-----0-0-0-|
D||-3---3-----3-3-3-|
A||-3---3-----3-3-3-|
E||-----------------|

(But if you replace it all with a regular F chord, it will sound fine too)

***************************************************************************

Intro:
                     3x
e||---------0--------||--0--|
B||-----0-------0----||--0--|
G||---5---5---5---5--||--5--|
D||-7----------------||--7--|
A||------------------||-----|
E||------------------||-----|



Am              Fmaj/C
They f**ked our asses

Am                Fmaj/C
They f**ked them hard

Am              C
But we kept our indie cred 

F                   E
For the whole nine yards



Am               Fmaj/C
They blocked our album

Am                Fmaj/C
They f**ked our show

Am                      C
But we marched through hill and dale 

F                     E
Through the ice and snow


Am G F E 
Am G F E....... Am
            
Submit corrections

comments powered by Disqus
↑ Back to top | Tenacious D Chords for They Fucked Our Asses. Lyrics for acoustic guitar and electric guitar. Tablatures and chords are parodies/interpretations of the original songs. You may use it for private study, scholarship, research or language learning purposes only