» » »

Tenacious D, They Fucked Our Asses Tabs (ver.1)

Artists:  A B C D E F G H I J K L M N O P Q R S T U V W X Y Z # 

They Fucked Our Asses Tabs (ver.1)

Tenacious D Tabs
Rating:
0/5 (0 votes)
They Fucked Our Asses lessons Tabs too difficult? Try these video lessons and learn fast
                They f**ked Our Asses by Tenacious D off of "Rize Of The Fenix"

(Acoustic)

                                                            A min.
|---------0------------------0------------------0-----------0---------------|
|---1-0-1---1-0-1------1-0-1---1-0-1------1-0-1---1-0-1-----1---------------|
|-2------------------2------------------2-------------------2---------------|
|-----------------------------------------------------------2---------------|
|-----------------------------------------------------------0---------------|
|---------------------------------------------------------------------------|

  A min.          F 
|-0--0-0--0-0-0---1--1-1--1-1-1-------------------|
|-1--1-1--1-1-1---1--1-1--1-1-1-------------------|
|-2--2-2--2-2-2---2--2-2--2-2-2-------------------|
|-2--2-2--2-2-2---3--3-3--3-3-3-------------------|
|-0--0-0--0-0-0-----------------------------------|
|-------------------------------------------------| x 2
      They f**ked our asses..

  A min.           C                  F                 E
|-0--0-0--0-0-0----0--0-0--0-0-0------1--1-1--1-1-1-----0--0-0--0-0-0-------|
|-1--1-1--1-1-1----1--1-1--1-1-1------1--1-1--1-1-1-----0--0-0--0-0-0-------|
|-2--2-2--2-2-2----0--0-0--0-0-0------2--2-2--2-2-2-----1--1-1--1-1-1-------|
|-2--2-2--2-2-2----2--2-2--2-2-2------3--3-3--3-3-3-----2--2-2--2-2-2-------|
|-0--0-0--0-0-0----3--3-3--3-3-3------------------------2--2-2--2-2-2-------|
|-------------------------------------------------------0--0-0--0-0-0-------|
       But we kept our Indie credit.. For the whole night..

  A min.          F
|-0--0-0--0-0-0---1--1-1--1-1-1-------------------|
|-1--1-1--1-1-1---1--1-1--1-1-1-------------------|
|-2--2-2--2-2-2---2--2-2--2-2-2-------------------|
|-2--2-2--2-2-2---3--3-3--3-3-3-------------------|
|-0--0-0--0-0-0-----------------------------------|
|-------------------------------------------------| x 2
      They blocked our album...

  A min.           C                  F                 E
|-0--0-0--0-0-0----0--0-0--0-0-0------1--1-1--1-1-1-----0--0-0--0-0-0-------|
|-1--1-1--1-1-1----1--1-1--1-1-1------1--1-1--1-1-1-----0--0-0--0-0-0-------|
|-2--2-2--2-2-2----0--0-0--0-0-0------2--2-2--2-2-2-----1--1-1--1-1-1-------|
|-2--2-2--2-2-2----2--2-2--2-2-2------3--3-3--3-3-3-----2--2-2--2-2-2-------|
|-0--0-0--0-0-0----3--3-3--3-3-3------------------------2--2-2--2-2-2-------|
|-------------------------------------------------------0--0-0--0-0-0-------|
 But we marched through hill and hill, through the ice and snow

(Electric)

|---------------------------------------------------------------|
|---------------------------------------------------------------|
|-------------4-5---------------4-5---------------4-5-----------|
|-7-7-7-7-----------5-5-5-5-----------3-3-3-3-------------2---2-|
|-7-7-7-7-----------5-5-5-5-----------3-3-3-3-------------2---2-|
|-5-5-5-5-----------3-3-3-3-----------1-1-1-1-------------0---0-| x 2
 AHHHHHHHHHHHHHHHHHHHHHHHHHHHHHHHHHHHHHHHHH!!!!

                    hold
|-5--3------------------------------|
|-------5--3------------------------|
|-------------5--4--5---------------|
|-----------------------------------|
|-----------------------------------|
|-----------------------------------|
       0h, 0h, 0h, 0h, 0hhhhhhhh
            

comments powered by Disqus
↑ Back to top | Tenacious D Tabs for They Fucked Our Asses. Lyrics for acoustic guitar and electric guitar. Tablatures and chords are parodies/interpretations of the original songs. You may use it for private study, scholarship, research or language learning purposes only