» » »

Tenacious D, The Divide Tabs (ver.1)

Artists:  A B C D E F G H I J K L M N O P Q R S T U V W X Y Z # 

The Divide Tabs (ver.1)

Tenacious D Tabs
Rating:
0/5 (0 votes)
The Divide lessons Tabs too difficult? Try these video lessons and learn fast
                Tenacious D

E|-------------|------2-2--------------|-------------|
B|-----4---2~--|--/4~-3-3-----3-----3--|-----2-------|
G|-----4---2~--|----------2-4---4-2----|-----2----2--|
D|--4~---------|-----------------------|--2~---/4----|
A|--2~---2-----|-----------------------|--0~---------|
E|-------------|-----------------------|-------------|

E|---------------|------------------------|----------------------|
B|--------3------|--3---------------------|----------------------|
G|----2-4---4-2--|----4~-4~-4~------------|--------4-------4-----|
D|--4------------|----2~-2~-2~-x-2-2-2-2--|--4-4-x-2-x-4-x-2-4~--|
A|---------------|-------------x-0-0-0-0--|--2-2-x---x-2-x---2~--|
E|---------------|------------------------|----------------------|

Comments and/or feedback is appreciated.
            

comments powered by Disqus
↑ Back to top | Tenacious D Tabs for The Divide. Lyrics for acoustic guitar and electric guitar. Tablatures and chords are parodies/interpretations of the original songs. You may use it for private study, scholarship, research or language learning purposes only