>
 >
Sex Supreme 1

Sex Supreme 1 Guitar Tabs

Tenacious D - Sex Supreme 1 chords, tabs, tablatures, lyrics

Guitar lessons | Add/correct | Request | Top 50 tabs Artists:  A B C D E F G H I J K L M N O P Q R S T U V W X Y Z 0-9

Sex Supreme 1 Guitar Tabs – Tenacious D

CD, Sheet music, Poster

Do you like Sex Supreme 1? Share with your friends now
ChordsTabsTabs v2Ukulele
-----------------------------------------------------------------------------
                        Tenacious D-Sex Supreme
-----------------------------------------------------------------------------
ive had this figured out for awhile, but havent got around to tabbing it yet.
hope you enjoy and keep rockin with the D.

Tuning: Standard (EADGBe)

      Em
e|---------7------8--------8-----5-------5-----3---------7-----|
B|----7h8--7-------8-------8------5------5------3---------7----|
G|----9-------------9---9----------6--6----------4---------8---|
D|----9-------10-------10-----7-------7-----5-------5/9--------|  Repeat once
A|--7----------------------------------------------------------|
E|-------------------------------------------------------------|

      Em              Cmaj       Amaj          Gmaj   Bmaj
e|-----------7-------(8)--------------------------------------| Repeat till
B|------7h8--7---------(8)--------5---5-------3-------7-------| Jack screams
G|------9---------9--------9--------6---6-------4-------8-----| SQUEEEEEZEE!!
D|------9---------10-------10---------7---7-------5-------9---| then just start
A|-----7----------10-------10-------------7-------------------| strumming the
E|--0-----------8--8--------8----5-----------3------3/7-------| chords.

  Now comes the electric guitar part which is all power chords.
  it comes in over the
  acoustic like this
    A       G       B           E5      A#      A  G
e-----------------------------------------------------------|
B|----------------------------------------------------------|
G|------------------------------9---------------------------|
D|--7-------5-------9-----then--9-(?x)--8-------7--5-(?x)---|
A|--7-(8x)--5-(4x)--9-(4x)------7-------8-(3x)--7--5--------|
E|--5-------3-------7-------------------6-------5--3--------|
  Next electric part
    Em F      A5  B5
e|--------------------------------|
B|--------------------------------|
G|--------------------------------|  A funky groove to fuck to...
D|-------------2---4---4br-(2x)---|
A|--2---4---4b-0-0-2-0-2br--------|
E|--0-0-2-0-2b--------------------|
  More acoutic stuff now
    Em                                A5
e|-----------------------------------------------------------------|
B|-----------------------------------------------------------------|
G|------------------------------------0h2--2--0--2--0--2b--2b--2b--|
D|--0h2--2--0--2--0--2--0--2--0h2--2--0h2--2--0--2--0--2b--2b--2b--|
A|--0h2--2--0--2--0--2--0--2--0h2--2-------------------------------|
E|-----------------------------------------------------------------|
  Back to electric        each section twice
      E5          D5               C5       B5
e|-------------------------------\------------------|
B|-------------------------------\------------------|
G|--9-9-7-9-------7--------------\--5-------4-------|
D|--9-9-7-9-(2x)--7-(approx 12x)-\--5-(4x)--4-(4x)--|
A|--7-7-7-7-------5--------------\--3-------2-------|
E|-------------------------------\------------------|
   Acoustic and electric strumming fast
    Dmaj   Amaj    Emaj
e|--2----------------------|
B|--3-(4x)-2---------------|
G|--2------2-(2x)--1-------|  4 times
D|---------2-------2-(2x)--|
A|---------0-------2-------|
E|-----------------0-------|
   A#       C5           A
e|-------------------------------------|
B|-------------------3-------2---------|
G|-------------------2-(?x)--2--(?x)---|  2 times- 3rd time build up
D|--8-------10-------2-------2---------|
A|--8-(?x)--10-(?x)--0-------0---------|
E|--6-------8--------------------------|
  End by striking A hard 5 times

Lyrics
hows it goin, thats the first thing i say to you
hows it goin, are you flowin
listen honey thinkin bout a couple thins to say to you
showin growin
man id like to place my hand
upon your fuckin sexy ass and squeeze
and squeeeeeeeeze
take off your blouse
and your underpants
then take a look
cause here me and kg come naked
out of the sidehatch
with the oils and perfumes
and inscence
now your groovin
put on a cool 70s groove
a funky groove to fuck to
a funky groove to fuck tooo
me, me and kg
its all about sex supreme
relax to cream dreams
have you ever been worked on
are hot for your snatch
thats what im offering you
you step into our room
and then you smell the perfumes
you lay upon our roundish bed
and then you feel a tickling on your head
its kg with the feather
the french tickler
look out babay he got the tools
and then u fell something down by your feet
its me its jb
im suckin upon your toes
we dont mind suckin n toes
good luck findin a boyfriend who sucks toes
havin sex with me and kg
now your talkin double team
supreme!!!

HAIL SATAN
well thats it, i think i spent 2 hours writing a perfect tab, but u can let me kno what 
think about it- just rate it and give it some comments, and sure, u can e-mail me too. 
respect the D and buy their dvd

| /  slide up
| \  slide down
| h  hammer-on
| p  pull-off
| ~  vibrato
| +  harmonic
| x  Mute note
=============================================================================





Comments


Popular Tenacious D tabs & chords
City Hall Chords
Kielbasa Chords
Double TeamIntro Tabs
Explosivo 1 Tabs
F*** Her Gently Tabs
Kielbasa (Intro) Tabs
Metal 3 Tabs
Rize Of The Fenix Tabs
Wonderboy Tabs
Sasquatch Ukulele


Song lyrics



↑ Back to top | Tablatures and chords are parodies/interpretations of the original songs. You may use it for private study, scholarship, research or language learning purposes only
© 2014 AZChords.com Contact us | Privacy policy | DMCA | Add/correct tabs | Request tabs | Top 50 tabs