» » »

Tenacious D, Sasquatch Tabs (ver.2)

Artists:  A B C D E F G H I J K L M N O P Q R S T U V W X Y Z # 

Sasquatch Tabs (ver.2)

Tenacious D Tabs
 Rating:
4/5 (4 votes)
Sasquatch lessons Tabs too difficult? Try these video lessons and learn fast
                
Bm              A
   There was some scientists,
E                        A
trying to figure out the Sasquatch riddle.
Bm                  A                    E      F# G F# 
  Then they figured out it was a missing link.
Bm             A          E                     A
  “In Search of Sasquatch,” that was a kickass “In Search of,”
     Bm      A     E
with Leonard Nimoy kickin’ out the jams.
Bm             A          E              A
  He captured imagination of people all around the globe.
Bm             A                E     F# G F#
  His name was Sasquatch, so I’m told.
Bm             A              C                     G      Bm
  His legend’s ancient in the ancient scribe of the Indian tribe,
A        E     F# G F#  Bm
  Apache tribe.

Scientists have proven that the Sasquatch, he is real.
Take a look at the plaster cast of his foot now you know he’s real.
Listen real close to the audiotape now you will know that he’s real.
Couldn’t be a man in gorilla suit,
No f**kin’ way.  No, you know he’s real.
Real, real, real real, real, real, really real real.

  Bm     A        C      G        Bm              A             
|-7---7---7-7-7---7---7---7-7-7---7-7-7-7-7-7-7-7-7-7-7-7-7-7-7-7-|
|-----------------------------------------------------------------|
|-----------------------------------------------------------------|
|-----------------------------------------------------------------|
|-----------------------------------------------------------------|
|-----------------------------------------------------------------|

  C          G                  Bm      A       C      G
|-10--7--10--12--12^---12^--10-----10---9-9-9------9-9-7-7---7--|
|-------------------------------------------------------------7-|
|---------------------------------------------------------------|
|---------------------------------------------------------------|
|---------------------------------------------------------------|
|---------------------------------------------------------------|

Don’t take this personally, cause its not about your playing.
No, dude, your drumming is kickass.
It’s just that the D, it’s always just been me and KG.
And we’re just not comfortable being a power trio.

                             I hope there is no hard feelings
|-------------------------------------------------|
|---3-----3-----3-----3-----3-----3-----3-----3---|
|-----4-----4-----4-----4-----4-----4-----4-----4-|
|-------4-----4-----4-----------4-----4-----4-----|
|-2-----------------------2-----------------------|
|-------------------------------------------------|

|-------------------------------------------------|
|---3-----3-----3-----3-----3-----3-----3-----3---|
|-----4-----4-----4-----4-----4-----4-----4-----4-|
|-------4-----4-----4-----------4-----4-----4-----|
|-2-----------------------2-----------------------|
|-------------------------------------------------|

|-------------------------------------------------|
|---2-----2-----2-----2-----2-----2-----2-----2---|
|-----2-----2-----2-----2-----2-----2-----2-----2-|
|-------2-----2-----2-----------2-----2-----2-----|
|-0-----------------------0-----------------------|
|-------------------------------------------------|
     Sasquatch               We know your legend’s 
|--------------------------------------------------|
|--3--3--3--3--3--3--3--3--2--2--2--2--2--2--2-----|
|---4--4--4--4--4--4--4--4--2--2--2--2--2--2--2----|
|----4--4--4--4--4--4--4-----2--2--2--2--2--2------|
|-2-----------------------0------------------------|
|--------------------------------------------------|
  real                        Sasquatch
|--------------------------------------------------|
|--3--3--3--3--3--3--3--3--3--3--3--3--3--3--3--3--|
|---4--4--4--4--4--4--4--4--4--4--4--4--4--4--4--4-|
|----4--4--4--4--4--4--4-----4--4--4--4--4--4--4---|
|-2-----------------------2------------------------|
|--------------------------------------------------|
  We know your love is    real
|--------------------------------------------------|
|--2--2--2--2--2--2--------3--3--3--3--3--3--3--3--|
|---2--2--2--2--2--2--------4--4--4--4--4--4--4--4-|
|----2--2--2--2--2--2--------4--4--4--4--4--4--4---|
|-0-----------------------2------------------------|
|--------------------------------------------------|
     Sasquatch                 
|-------------------------0-|
|--3--3--3--3-------------2-|
|---4--4--4--4------------2-|
|----4--4--4--4-----------2-|
|-2-----------------------0-|
|---------------------------|

You and Tenacious D are real.
            
Submit corrections

comments powered by Disqus
↑ Back to top | Tenacious D Tabs for Sasquatch. Lyrics for acoustic guitar and electric guitar. Tablatures and chords are parodies/interpretations of the original songs. You may use it for private study, scholarship, research or language learning purposes only