>
 >
Pick Of Destiny 2

Pick Of Destiny 2 Guitar Tabs

Tenacious D - Pick Of Destiny 2 chords, tabs, tablatures, lyrics

Guitar lessons | Add/correct | Request | Top 50 tabs Artists:  A B C D E F G H I J K L M N O P Q R S T U V W X Y Z 0-9

Pick Of Destiny 2 Guitar Tabs – Tenacious D

CD, Sheet music, Poster

Do you like Pick Of Destiny 2? Share with your friends now
Bass TabsChordsChords v2Chords v3Chords v4TabsTabs v2Tabs v3Tabs v4Tabs v5Ukulele
Tenacious D
The pick of destiny

Please rate this tab and leave comments.im About 99.9% that this tab
is correct. I have tabbed the solo out.

Key:
BU
(9)=Bend the note up .The number in the bracket=u need to bend the previous note to 
like that note placed in the brakets.

BD = bend the note down.
/=slide to the note right of the slash.

Chords tabed

  Am   G   F   E   Dm

E|-0---3-------0---1--|
B|-1---0-------0---3--|
G|-2---0-------1---2--|
D|-2---0---3---2---0--|
A|-0---2---3---2------|
E|-----3---1---0------|

Chorus 1
---------
             Am
Cos it's the pick!

Of destiny, child,
    F
You know it will be rocking,
                G
Cos it's fucking insane.

              Am
It's just the pick

of destiny, child,
     F                                        G
More precious than a diamond On a platinum chain.

Verse 1
-------
Am                                   G
 In Venice Beach,There was a man named Kage,
F                                    G
 When he was busking,He was all of the rage.
Am                                   G
 He met Jables and he taught him well.
F                                    G
 All the techniques,That were developed in hell.

Am                                   G
 Cock pushups,And the power slide,
F                                       G
 Dick simulation,Now there's nowhere to hide.
Am                                   G
 They formed a band they named Tenacious D,
F                                    G
 And then they go The pick of destiny.

Chorus 2
---------
             Am
Cos it's the pick!

Of destiny, child,
    F
You know it will be rocking,
                G
Cos it's fucking insane.

              Am
It's just the pick

of destiny, child,
   F                                           G
Our tasty grooves are better than a chicken chow mein.

Bridge 1
---------
    F
Cos he who is sleezy,
   G
Is easy to pleasey,
    F
And she who is juicy,
     G
Must be Loosy-Goosey
    F
And he who is groovy,
     G
Will be in my movie,
    Am G F G E
So come on!

Middle
-------
    Dm
The wizard and the demon had a Battle Royale,
    Am                                          E
The demon almost killed him With an evil ka-pow.
    C                                           G
But then it broke his tooth and thus the demon said 'ow'!

Chorus 3
---------
             Am
Cos it's the pick!

Of destiny, child,
    F
You know it will be rocking,
                G
Cos it's fucking insane.

              Am
It's just the pick

of destiny, child,
     F                                    G
You know our movie's better Than Citizen Kane.

Bridge 2
--------

    F
Cos he who's a geezer,
     G
Must live in my freezer,
     F
And she who is Starky,
   G
Is full of malarky,
    F
And he who is groovy,
     G
Will be in my movie,

So come on!

Solo:
------

  Am      (1/4 bend)                    F
               \/
E|-----------------|-----------0-------|---------------------------|
B|-----------------|-----------0-------|---BU--------BU---BD-------|
G|-------------5b--|--------------5----|--7(8)--5--7-(9)--(7)--5---|
D|--------5-7------|-----5-7---------7-|-------------------------7-|
A|-----------------|-------------------|---------------------------|
E|-----------------|-------------------|---------------------------|

   G                          Am

E|----0--0--0---------------|----0-----0--------0--|--0--0--0--0--0--0----0-|
B|----------------------0---|----0-----0--------0--|--0--0--0--0--0--0----0-|
G|-5--7--0--7(9)-(7)--5-----|----9/10--10/12---/12-|--14-12-14-------9/10---|
D|-----------BU--BD-------7-|----------------------|------------------------|
A|--------------------------|----------------------|------------------------|
E|--------------------------|----------------------|------------------------|

   F

E|-0------0--0--0------0--0--0------0--0--0-----0--0--0--|
B|-0------0--0--0------0--0--0------0--0--0-----0--0--0--|
G|-10/12--12-12-12/14--14-14-14/16--16-16-16-16/17-17-17-|
D|-------------------------------------------------------|
A|-------------------------------------------------------|
E|-------------------------------------------------------|

   G

E|-0------0--0--0------0--0--0---------|
B|-0------0--0--0------0--0--0---------|
G|-17/19--19-19-19/21--21-21-21--------|
D|---------------------------------7-5-|
A|-------------------------------------|
E|-------------------------------------|

Bridge 3
---------

    F
Cos if you're a diva.
     G
Then go to Geneva,
    F
And if you're a croney,
     G
Then suck on my boney,
    F
And if you are groovy,
     G
Then get in my movie,

Ending
-------

           F    C G   E  Am
It's called The pick of destiny,

   F  C  G  E  Am
The pick of destiny.





Comments


Popular Tenacious D tabs & chords
Tribute 2 Bass Tabs
Sasquatch Chords
The Ballad Of Hollywood Jack And The Rage Kage Chords
The Ballad Of Hollywood Jack And The Rage Kage 1 Chords
Tribute Chords
Andrea Tabs
Kielbassa Tabs
Kyle Quit The Band 1 Tabs
He Teaches Me Ukulele
Kyle Quit The Band Ukulele


Song lyrics



↑ Back to top | Tablatures and chords are parodies/interpretations of the original songs. You may use it for private study, scholarship, research or language learning purposes only
© 2014 AZChords.com Contact us | Privacy policy | DMCA | Add/correct tabs | Request tabs | Top 50 tabs