>
 >
Metal 2

Metal 2 Bass Tabs

Tenacious D - Metal 2 chords, tabs, tablatures, lyrics

Guitar lessons | Add/correct | Request | Top 50 tabs Artists:  A B C D E F G H I J K L M N O P Q R S T U V W X Y Z 0-9

Metal 2 Bass Tabs – Tenacious D

CD, Sheet music, Poster

Do you like Metal 2? Share with your friends now
Bass TabsBass Tabs v2
Tenacious D - Metal

Bend the G note just a quarter bend
g|-----------------------------------------------------------x-----|
d|-----------------------------------------------------------x-----|
a|--------------3p2p0h2p0-2h3p2p0------------------3p2p0h2---x-----|
d|-0-00--3^p0-0----------------------0-00--3^p0-0------------x-----|

g|-----------------------------------------------------------------| 
d|----------------------------------------5p3p2h3p2p0h2p0-2h3p2p0--| 
a|--------------3p2p0h2p0-2h3p2p0----------------------------------|
d|-0-00--3^p0-0----------------------1-1---------------------------|

x1 Intro
x4 Verse

Pre-Chorus
g|----------------------------|
d|----------------------------| x2
a|----------------------------|
d|-0-00--3^p0-00--------------|

Chorus
g|-----------------------------------------------------------------|
d|-----------------------------------------------------------------| x2
a|--7--5--7--5--7--8----7--5--7--5--10-9--8------------------------|
d|-----------------------------------------------------------------|

Bridge (let ring)
g|------------------------------------------|
d|------------------------------------------|
a|--7----5----3-----7----5----3---5-3-2-3---|
d|------------------------------------------|

g|------------------------------------------|
d|------------------------------------------|
a|------------------------------------------|
d|--8----7----------8----7----0-------------|

[INTRO/VERSE RIFF] x5

Breakdown/Outro   (let ring)
g|--------------------------------|
d|--------------------------------| x2
a|------------/3-2--/6-5--/9-8----|
d|--0-----------------------------|

g|---------------------------------------------|
d|---------------------------------------------| x2
a|---------------------------2h3p2p0-2p0-------|
d|--0-0--0--10-9---0--0--2p0-------------3p2---|

g|-----------------------------------------------------------------|
d|-----------------------------------------------------------------| x2
a|---------------------------------------/3-2--/6-5--/9-8----------|
d|--000-000--3-2--000-000--2-3--000-000----------------------------|

g|-----------------------------------------------------------------|
d|-----------------------------------------------------------------| x2
a|------3p0-2p0-------------0---------------3p2p0-------0-----0----|
d|--2p0---------0-2-2h3p2p0-0---------0h2-3-------0-2h3---3p2-0----|





Comments


Popular Tenacious D tabs & chords
Government Totally Sucks 1 Chords
Destiny Intro Tabs
Double Team Tabs
Karate Tabs
Kielbasa 2 Tabs
Pick Of Destiny 5 Tabs
Sasquatch Tabs
Tribute 6 Tabs
City Hall Ukulele
Sex Supreme Ukulele


Song lyrics



↑ Back to top | Tablatures and chords are parodies/interpretations of the original songs. You may use it for private study, scholarship, research or language learning purposes only
© 2014 AZChords.com Contact us | Privacy policy | DMCA | Add/correct tabs | Request tabs | Top 50 tabs