>
 >
Master Exploder 2

Master Exploder 2 Guitar Tabs

Tenacious D - Master Exploder 2 chords, tabs, tablatures, lyrics

Guitar lessons | Add/correct | Request | Top 50 tabs Artists:  A B C D E F G H I J K L M N O P Q R S T U V W X Y Z 0-9

Master Exploder 2 Guitar Tabs – Tenacious D

CD, Sheet music, Poster

Do you like Master Exploder 2? Share with your friends now
Bass TabsChordsTabsTabs v2Tabs v3Tabs v4Tabs v5Ukulele
All guitars in standard tuning.

Jack Clean


E||---------------------------------------|---------------------------|
B||---------------------------------------|---------------------------|
G||--9-9-9-9-9-9-9-9-9--------------------|--5--4--4----7----7--8--9--|
D||--9-9-9-9-9-9-9-9-9----x---x---x---x---|--5--5--5----7----7--8--9--|
A||--7-7-7-7-7-7-7-7-7----x---x---x---x---|--5--5--5----5----7--8--9--|
E||--0-0-0-0-0-0-0-0-0----x---x---x---x---|--3--3--3----5----5--6--7--|

Repeat throughout the entire song until the ending riff where Jack plays:
(Also a distorted guitar plays the above chords starting just before the lyric "Sorry... 
did not mean.... to blow your mind" and this plays throughout and ends on the same riff 
the clean guitar below)

E||----------------------------------|----------------------------------|
B||----------------------------------|----------------------------------|
G||--9-----------7-7-7-----------5-5-|--5---------------------------9-9-|
D||--9---9-9-9---7-7-7---7-7-7---5-5-|--5---5-5-5-5-5-5-5---4---2---9-9-|
A||--7---9-9-9---5-5-5---7-7-7---3-3-|--3---5-5-5-5-5-5-5---4---2---7-7-|
E||------7-7-7-----------5-5-5-------|------3-3-3-3-3-3-3---2---0-------|


----------------------------------|--------------------------------||
----------------------------------|--------------------------------||
--9-----------7-7-7-----------5-5-|--5-----------------------------||
--9---9-9-9---7-7-7---7-7-7---5-5-|--5---5-5-5-5-5-5-5---4---2-----||
--7---9-9-9---5-5-5---7-7-7---3-3-|--3---5-5-5-5-5-5-5---4---2-----||
------7-7-7-----------5-5-5-------|------3-3-3-3-3-3-3---2---0-----||


Here's guitar 1 (Kyle 1) Listen to the song for when to come in:

---------12--------12-------------|------------------------12---------------|
----------------------------------|---------------------------15p-12-15p-12-|
---14b-------14b---------14b--12--|--14--14p-12----12--14b------------------|
----------------------------------|-------------14--------------------------|
----------------------------------|-----------------------------------------|
----------------------------------|-----------------------------------------|


---------12--------12-------------|
----------------------------------|
---14b-------14b---------14b---12-|
----------------------------------|
----------------------------------|
----------------------------------|

--12-17p-15p-12-17p-12-15h-17p-15p-12-17p-12-15h-17p-15p-12-|
------------------------------------------------------------|
------------------------------------------------------------|
------------------------------------------------------------|
------------------------------------------------------------|
------------------------------------------------------------|

---------12h-17p-12----12h-14p-12----12h-15p-12----|
--15b---------------15------------15------------15-|
---------------------------------------------------|
---------------------------------------------------|
---------------------------------------------------|
---------------------------------------------------|


--12h-17p-12----12h-14p-12----12--------------------|
-------------15------------15----15p-12p-11---------|
--------------------------------------------12\---x-|
----------------------------------------------------|
----------------------------------------------------|
----------------------------------------------------|

Kyle 1

---------------------------|---------------------------------|
--3----7--3s--5--5--8--5s--|--7--7h-8h-10--7s--8--8--12--8s--|
---------------------------|---------------------------------|
---------------------------|---------------------------------|
---------------------------|---------------------------------|
---------------------------|---------------------------------|

-----------------------------------|---------------------|
--10--10--13--10s--12--12--15--12--|--15b----------------|
-----------------------------------|---------------------|
-----------------------------------|---------------------|
-----------------------------------|---------------------|
-----------------------------------|---------------------|

--------------------------------------------------------|----------|
--------------------------------------------------------|----------|
--16p-14p-12s-11-14p-12p-11s-9-12p-11p-9s-7-11p-9p-7s-5-|----7b----|
--------------------------------------------------------|----------|
--------------------------------------------------------|----------|
--------------------------------------------------------|----------|

Kyle 2 (harmony)

--------------------------|
--------------------------|
--4----7--4s--5--5--9--5--|
--------------------------|
--------------------------|
--------------------------|

---------------------------------|-----------------------------------|------|
---------------------------------|-----------------------------------|------|
--7--7h-9h-11--7s--9--9--12--9s--|--11--11--14--11s--12--12--16--12--|--14b-|
---------------------------------|-----------------------------------|------|
---------------------------------|-----------------------------------|------|
---------------------------------|-----------------------------------|------|


----------------------------------------------------|---------------|
----------------------------------------------------|---------------|
----------------------------------------------------|---------------|
----------------------------------------------------|---------------|
--14p-12p-10s-9-12p-10p-9s-7-10p-9p-7s-5-9p-7p-5s-4-|-------5b------|
----------------------------------------------------|---------------|


Kyle 1

---------12--------12-------------|------------------------12---------------|
----------------------------------|---------------------------15p-12-15p-12-|
---14b-------14b---------14b--12--|--14--14p-12----12--14b------------------|
----------------------------------|-------------14--------------------------|
----------------------------------|-----------------------------------------|
----------------------------------|-----------------------------------------|


---------12--------12-------------|
----------------------------------|
---14b-------14b---------14b---12-|
----------------------------------|
----------------------------------|
----------------------------------|

--12-17p-15p-12-17p-12-15h-17p-15p-12-17p-12-15h-17p-15p-12-|
------------------------------------------------------------|
------------------------------------------------------------|
------------------------------------------------------------|
------------------------------------------------------------|
------------------------------------------------------------|


---------------------------------------------------|
--15b----17p-15------------------------------------|
----------------16p-15-16p-15-14p-12-14p-12--------|
--------------------------------------------14p-12-|
---------------------------------------------------|
---------------------------------------------------|


---------------------------------------|---------12--------12-------------|
---------------------------------------|----------------------------------|
---------12--14p-12-14----12~------12--|---14b--------14b--------14b---12-|
--14p-12-----------------------14------|----------------------------------|
---------------------------------------|----------------------------------|
---------------------------------------|----------------------------------|

--12-17p-15-12-17p-12-15h-17p-15p-12-17p-12-15h-17p-15p-12-|
-----------------------------------------------------------|
-----------------------------------------------------------|
-----------------------------------------------------------|
-----------------------------------------------------------|
-----------------------------------------------------------|

--------------|-------------------|-----------------|
--10s-12------|---13----12----10--|----12p-10s--8---|
--------------|-------------------|-----------------|
--------------|-------------------|-----------------|
--------------|-------------------|-----------------|
--------------|-------------------|-----------------|


------------------------------------------------------|
--15h-17p-15-12-17-12-15h-17p-15-12-17-12-15h-17p-15--|
------------------------------------------------------|
------------------------------------------------------|
------------------------------------------------------|
------------------------------------------------------|


Kyle 2

-------|-------|---------------------------|
-------|-------|---------------------------|
-------|-------|----------7---9----9p-7----|
-------|-------|--------9---------------9--|
-------|-------|--7~-----------------------|
-------|-------|---------------------------|

--------------------------------------------|
--------------------------------------------|
--9h-11p-9-7-12-7-9h-11p-9-7-12-7-9h-11p-9--|
--------------------------------------------|
--------------------------------------------|
--------------------------------------------|

--------------------------------|-------------------------------|
--------------------------------|-------------------------------|
--9~--------9p-7------9p-7------|-------------------------------|
-----------------9p-8------9p-8-|--7p-5---5-7p-5---5-7s--9------|
--------------------------------|-------7--------7--------------|
--------------------------------|-------------------------------|

---------------------------|--------------------------------------------|
---------------------------|--------------------------------------------|
----------7---9----9p-7----|--9h-11p-9-7-12-7-9h-11p-9-7-12-7-9h-11p-9--|
--------9---------------9--|--------------------------------------------|
--7~-----------------------|--------------------------------------------|
---------------------------|--------------------------------------------|

---------------|--------------------|-------------------|
---------------|--------------------|-------------------|
--7s-9---------|----14----12----11--|--12p-11s--9-------|
---------------|--------------------|-------------------|
---------------|--------------------|-------------------|
---------------|--------------------|-------------------|

--------------------------------------------------|
--------------------------------------------------|
--12h-14p-12-9-14-9-12h-14p-12-9-14-9-12h-14p-12--|
--------------------------------------------------|
--------------------------------------------------|
--------------------------------------------------|





Comments


Popular Tenacious D tabs & chords
Only Gay Eskimo Chords
City Hall 2 Tabs
F*** Her Gently 2 Tabs
Government Totally Sucks 1 Tabs
Papagenu Hes My Sassafrass 1 Tabs
Rock Is Dead 2 Tabs
Rock Your Socks Off Tabs
39 Ukulele
Kyle Took A Bullet For Me Ukulele
Rize Of The Fenix Ukulele


Song lyrics



↑ Back to top | Tablatures and chords are parodies/interpretations of the original songs. You may use it for private study, scholarship, research or language learning purposes only
© 2014 AZChords.com Contact us | Privacy policy | DMCA | Add/correct tabs | Request tabs | Top 50 tabs