» » »

Tenacious D, Kielbasa Sausage Tabs (ver.2)

Artists:  A B C D E F G H I J K L M N O P Q R S T U V W X Y Z # 

Kielbasa Sausage Tabs (ver.2)

Tenacious D Tabs
 Rating:
4/5 (4 votes)
Kielbasa Sausage lessons Tabs too difficult? Try these video lessons and learn fast
                Hi.  This is my first tab and I hope you like it.  All I have now is the beginning 
of this great song.  Please comment and rate.
*Standard tuning*

e|--------------------|----------------------|------------------|--------------
B|--------------------|1---1----1---1--------|------------------|1--1--111-----
G|------3^--03^-0-----|0h2-0---00---0--------|----3^--03^-0-----|2--0--000-----
D|------0---00--0-----|3---3--3-0---0-0h2p0--|----0---00--0-----|3--3--020-----
A|------------------0-|---------3---3------3-|----------------0-|------333-----
E|--3-3---------------|----------------------|3-3---------------|--------------

e|--------------------|------------------------|-------------------|--------------
B|--------------------|1---1----1---1----------|-------------------|1--1--111-----
G|------3^--03^-0-----|0h2-0---00---0----------|-------------------|2--0--000-----
D|------0---00--0-----|3---3--3-0---0-0h2p0-0--|-------------------|3--3--020-----
A|------------------0-|---------3---3------3---|--2-2h3p2-0-2------|------333-----
E|--3-3---------------|------------------------|3-------------3-1--|--------------


I will continue when I get the chance.
            
Submit corrections

comments powered by Disqus
↑ Back to top | Tenacious D Tabs for Kielbasa Sausage. Lyrics for acoustic guitar and electric guitar. Tablatures and chords are parodies/interpretations of the original songs. You may use it for private study, scholarship, research or language learning purposes only