>
 >
Kickapoo 2

Kickapoo 2 Guitar Tabs

Tenacious D - Kickapoo 2 chords, tabs, tablatures, lyrics

Guitar lessons | Add/correct | Request | Top 50 tabs Artists:  A B C D E F G H I J K L M N O P Q R S T U V W X Y Z 0-9

Kickapoo 2 Guitar Tabs – Tenacious D

CD, Sheet music, Poster

Do you like Kickapoo 2? Share with your friends now
Bass TabsChordsChords v2Chords v3TabsTabs v2Tabs v3Tabs v4Tabs v5Ukulele
---------------------------------------------------------------------
                            Kickapoo - Tenacious D
---------------------------------------------------------------------

Tuning: Standard (EADGBe)

Intro

    Dm           
e|---1--1-1-1-1--3-1-1-0--1-1-1--|---1--1-1-1-1--3-1-1-0--1-1-1--|
B|---3--3-3-3-3--3-3-3-3--3-3-3--|---3--3-3-3-3--3-3-3-3--3-3-3--|
G|---2--2-2-2-2--2-2-2-2--2-2-2--|---2--2-2-2-2--2-2-2-2--2-2-2--|
D|-0-----------------------------|-0-----------------------------|
A|-------------------------------|-------------------------------|
E|-------------------------------|-------------------------------|
    Am
e|-------------------------------|-------------------------------|
B|---1--1-1-1-1--3-1-1-0--1-1-1--|---1--1-1-1-1--3-1-1-0--1-1-1--|
G|---2--2-2-2-2--2-2-2-2--2-2-2--|---2--2-2-2-2--2-2-2-2--2-2-2--|
D|---2--2-2-2-2--2-2-2-2--2-2-2--|---2--2-2-2-2--2-2-2-2--2-2-2--|
A|-0-----------------------------|-0-----------------------------|
E|-------------------------------|-------------------------------|
     F                         C           G
e|-------------------------|-------------------------|
B|---1--1-1-1----1--1-1-1--|---1--1-1-1--------------|
G|---2--2-2-2----2--2-2-2--|---0--0-0-0----0--0-0-0--|
D|-3-3--3-3-3--3-3--3-3-3--|---2--2-2-2----0--0-0-0--|
A|-------------------------|-3-3--3-3-3----2--2-2-2--|
E|-------------------------|-------------3-3--3-3-3--|


Verse ('A long ass...') (Play this twice)


    Dm           
e|---1--1-1-1-1--3-1-1-0--1-1-1--|---1--1-1-1-1--3-1-1-0--1-1-1--|
B|---3--3-3-3-3--3-3-3-3--3-3-3--|---3--3-3-3-3--3-3-3-3--3-3-3--|
G|---2--2-2-2-2--2-2-2-2--2-2-2--|---2--2-2-2-2--2-2-2-2--2-2-2--|
D|-0-----------------------------|-0-----------------------------|
A|-------------------------------|-------------------------------|
E|-------------------------------|-------------------------------|

    Am
e|-------------------------------|-------------------------------|
B|---1--1-1-1-1--3-1-1-0--1-1-1--|---1--1-1-1-1--3-1-1-0--1-1-1--|
G|---2--2-2-2-2--2-2-2-2--2-2-2--|---2--2-2-2-2--2-2-2-2--2-2-2--|
D|---2--2-2-2-2--2-2-2-2--2-2-2--|---2--2-2-2-2--2-2-2-2--2-2-2--|
A|-0-----------------------------|-0-----------------------------|
E|-------------------------------|-------------------------------|

    F                          C           G
e|-------------------------|---------------------------|
B|---1--1-1-1----1--1-1-1--|---1--1-1-1-(------------)-|
G|---2--2-2-2----2--2-2-2--|---0--0-0-0-(---0--0-0-0-)-|
D|-3-3--3-3-3--3-3--3-3-3--|---2--2-2-2-(---0--0-0-0-)-|
A|-------------------------|-3-3--3-3-3-(---2--2-2-2-)-|
E|-------------------------|------------(-3-3--3-3-3-)-|
                                        (1st Time ONLY)  

    G
e|(-------------------------|---------------------------)|
B|(-------------------------|---------------------------)|
G|(-0------------------0-0--|--0------------------------)|
D|(-0------------------0-0--|--0------------------------)|
A|(-2------------------2-2--|--2------------------------)|
E|(-3------------------3-3--|--3------------------------)|
  (-------------------2nd Time ONLY---------------------)


Chorus ('Oh the dragon's balls...') (Play this twice)

   A5                        C5
e|---------------------|-------------------------|
B|---------------------|-------------------------|
G|---------------------|X-X--5--5--5-5-5-5--5-5--|
D|-7--7--7-7-7-7--7-7--|X-X--5--5--5-5-5-5--5-5--|
A|-7--7--7-7-7-7--7-7--|X-X--3--3--3-3-3-3--3-3--|
E|-5--5--5-5-5-5--5-5--|-------------------------|

        G5                    Bb5
e|--------------------------|-------------------------|
B|--------------------------|-------------------------|
G|--------------------------|-------------------------|
D|-X-X--5--5--5-5-5-5--5-5--|-88--8--8--8-8-8-8--8-8--|
A|-X-X--5--5--5-5-5-5--5-5--|-88--8--8--8-8-8-8--8-8--|
E|-X-X--3--3--3-3-3-3--3-3--|-66--6--6--6-6-6-6--6-6--|

 
   A5                       C5               G5
e|------------------------|------------------------------|
B|------------------------|------------------------------|
G|------------------------|------------------------------|
D|-7--7--7-7-7-7--7-7--9--|-10--10-----XXXX--5--5-5-5-5--|
A|-7--7--7-7-7-7--7-7--9--|-10--10-----XXXX--5--5-5-5-5--|
E|-5--5--5-5-5-5--5-5--7--|-8---8------XXXX--3--3-3-3-3--|

   A5    D5     A5   D5   A5  B5   C5              G5
e|-------------------------------|--------------------------------|
B|-------------------------------|--------------------------------|
G|-------7-7-X-------7-7---------|--------------------------------|
D|-7-7---7-7-X--7-7--7-7--7--(9--|-10--10----XXXX--5--5-5-5-5-)---| X4
A|-7-7---5-5-X--7-7--5-5--7--(9--|-10--10----XXXX--5--5-5-5-5-)---|
E|-5-5----------5-5-------5--(7--|-8---8-----XXXX--3--3-3-3-3-)---|
                             (-----1st,2nd and 3rd times Only-----)

Bridge

   F5   C5 G5            Bb5  Eb5       F5 Bb5       Ab5  C#5 Ab5
e|---------------------|--------------|------------|--------------|
B|---------------------|--------------|------------|--------------|
G|------5--------------|------8-------|----3-------|------6-------|
D|-3-5--5--5-5---------|-8-8--8--8-8--|-3--3--3-3--|-6-6--6--6-6--|
A|-3-5--3--5-5---------|-8-8--6--8-8--|-3--1--3-3--|-6-6--4--6-6--|
E|-1-3-----3-3---------|-6-6-----6-6--|-1-----1-1--|-4-4-----4-4--|


Verse (Meatloaf-JB'S Father 'You disobeyed my...')
  
   G5 C5 G5     Bb5  Eb5 Bb5 F5 Bb5 F5     Ab5 C#5 Ab5 
e|------------|-------------|------------|-----------------|
B|------------|-------------|------------|-----------------|
G|----5-------|------8------|----3-------|-(-----6------)--|
D|-5--5--5-5--|-8-8--8--8-8-|-3--3--3-3--|-(6-6--6--6-6--)-|X3
A|-5--3--5-5--|-8-8--6--8-8-|-3--1--3-3--|-(6-6--4--6-6--)-|
E|-3-----3-3--|-6-6-----6-6-|-1-----1-1--|-(4-4-----4-4--)-|
                                           (1st and 2nd Time 
                                                   only)
   Ab5                      G5                  A5  
e|------------------------|-----------------------|
B|------------------------|-----------------------|
G|------------------------|-----------------------|
D|-(6--6-6-6-6--6-6-6-6-)-|-5--5--5-5-5-5--5-5--7-|
A|-(6--6-6-6-6--6-6-6-6-)-|-5--5--5-5-5-5--5-5--7-|
E|-(4--4-4-4-4--4-4-4-4-)-|-3--3--3-3-3-3--3-3--5-|
   (---3rd time only----)
  
   Bb5           F5 
e|--------------------------|
B|--------------------------|
G|--------------------------|
D|-8--8----XXXX--3--3-3-3-3-|
A|-8--8----XXXX--3--3-3-3-3-|
E|-6--6----XXXX--1--1-1-1-1-|


  G5   C5     G5   C5   G5 A5   Bb5              F5
e|-----------------------------|------------------------------|
B|-----------------------------|------------------------------|
G|------5-5-X-------5-5--------|------------------------------|
D|-5-5--5-5-X--5-5--5-5--5-(7--|-8--8--8-8--XXXX--3--3-3-3-3)-|x4
A|-5-5--3-3-X--5-5--3-3--5-(7--|-8--8--8-8--XXXX--3--3-3-3-3)-|
E|-3-3---------3-3-------3-(5--|-6--6--6-6--XXXX--1--1-1-1-1)-|
(1st,2nd,3rd and 4th time) (--1st, 2nd and 3rd time only--)
                           ( 4th time, move on to next verse)  
                                        (BELOW)   

Verse ('Dio can you hear me...') (Play THREE times)

   G                                      F
e|-----3--3h5--3------|--6-----6----6---|---1------1h3p1--------|
B|---3-----------3----|-----3--3h4--4-3-|-1---1-1--------1------|
G|-0---------------0-0/3-------3----3---|-2-----2----------2----|
D|--------------------|-----------------|-3-----3------------3/-|
A|--------------------|-----------------|-----------------------|
E|--------------------|-----------------|-----------------------|
                                                                 

e|(---4----4----4---)-|
B|(-----1--1h2--2-1-)-| 
G|(-1------1----1---)-|
D|(-----------------)-| 
A|(-----------------)-|
E|(-----------------)-|
  (1st, 2nd time only) 
  
e|---------------|
B|(-4--4--4--4-)-|
G|(-5--5--5--5-)-|
D|(-6--6--6--6-)-|
A|---------------|
E|---------------|
  (3rd time only)



Bridge

   G5           Ab5          F5          Bb5        Ab5       
e|------------|------------|------------|--------------------------|
B|------------|------------|------------|--------------------------|
G|------------|------------|------------|--------------------------|
D|-5--5-5--5--|-6--6-6--6--|-3--3-3--3--|-8--8-8-8--6-6-6-6--6666--|
A|-5--5-5--5--|-6--6-6--6--|-3--3-3--3--|-8--8-8-8--6-6-6-6--6666--|
E|-3--3-3--3--|-4--4-4--4--|-1--1-1--1--|-6--6-6-6--4-4-4-4--4444--|


Dio's Part ('I hear you brave young...')
   C5                                     Bb5  
e|------------|-----------|-------------|-------------------------|
B|------------|-----------|-------------|-------------------------|
G|-5----------|-5---------|-5-----------|-3--3-3-3-3--3--3333333--|
D|-5----------|-5---------|-5-----------|-3--3-3-3-3--3--3333333--|
A|-3----------|-3---------|-3-----------|-1--1-1-1-1--1--1111111--|
E|------------|-----------|-------------|-------------------------|

   C5                                     Bb5
e|------------|-----------|-------------|---------------|
B|------------|-----------|-------------|---------------|
G|-5----------|-5---------|-5-----------|-3--3--3--3----|
D|-5----------|-5---------|-5-----------|-3--3--3--3----|
A|-3----------|-3---------|-3-----------|-1--1--1--1----|
E|------------|-----------|-------------|---------------|
   C5 
e|------------|-----------|
B|------------|-----------|
G|-5----------|-(5)-------|
D|-5----------|-(5)-------|
A|-3----------|-(3)-------|
E|------------|-----------|


'In the city of fallen angels'

   C5         F5   Ab5   C5        F5 G5 Ab5
e|-----------|---------|---------|-----------|
B|-----------|---------|---------|-----------|
G|-5---------|---------|-5-------|-----------|
D|-5---------|-3---6---|-5-------|-3--5-6----|x2
A|-3---------|-3---6---|-3-------|-3--5-4----|
E|-----------|-1---4---|---------|-1--3-4----|


Heavier Section (Play TWICE)
   G5                 Eb5  D5   G5                 Eb5  D5
e|----------------------------|----------------------------|
B|----------------------------|----------------------------|
G|--------------------8-8--7--|--------------------8-8--7--|
D|-5--5-5-5--X-X-X-X--8-8--7--|-5--5-5-5--X-X-X-X--8-8--7--|
A|-5--5-5-5--X-X-X-X--6-6--5--|-5--5-5-5--X-X-X-X--6-6--5--|
E|-3--3-3-3--X-X-X-X----------|-3--3-3-3--X-X-X-X----------|
   G5                 Eb5  D5  C5 D5 Eb5 F5
e|----------------------------|--------------|
B|----------------------------|--------------|
G|--------------------8-8--7--|-5--7-8--10---|
D|-5--5-5-5--X-X-X-X--8-8--5--|-5--7-8--10---| 
A|-5--5-5-5--X-X-X-X--6-6--5--|-3--5-6---8---|
E|-3--3-3-3--X-X-X-X----------|--------------|


'So he went from...'

   G5              D5          Bb5               F5
e|-------|-------|----|------|-------------------------------------|
B|-------|-------|----|------|-------------------------------------|
G|-------|-------|-7--|-(7)--|-3-3-3-3--3-3-3-3--------------------|
D|-5-----|-(5)---|-7--|-(7)--|-3-3-3-3--3-3-3-3--3-3-3-3--3-3-3-3--|
A|-5-----|-(5)---|-5--|-(5)--|-1-1-1-1--1-1-1-1--3-3-3-3--3-3-3-3--|
E|-3-----|-(3)---|----|------|-------------------1-1-1-1--1-1-1-1--|


Heavy Bit (Play THREE times)
   G5                 Eb5  D5   G5                 Eb5  D5
e|----------------------------|----------------------------|
B|----------------------------|----------------------------|
G|--------------------8-8--7--|--------------------8-8--7--|
D|-5--5-5-5--X-X-X-X--8-8--7--|-5--5-5-5--X-X-X-X--8-8--7--|
A|-5--5-5-5--X-X-X-X--6-6--5--|-5--5-5-5--X-X-X-X--6-6--5--|
E|-3--3-3-3--X-X-X-X----------|-3--3-3-3--X-X-X-X----------|
 
  G5                  Eb5  D5  C5 D5 Eb5 F5 
e|----------------------------|--------------|
B|----------------------------|--------------|
G|--------------------8-8--7--|-5--7-8--10---|
D|-5--5-5-5--X-X-X-X--8-8--5--|-5--7-8--10---| 
A|-5--5-5-5--X-X-X-X--6-6--5--|-3--5-6---8---|
E|-3--3-3-3--X-X-X-X----------|--------------|


Ending

(Tremelo Picking) 
  G
e|-----|---------|-----|------------|
B|-----|---------|-----|------------|
G|-----|---------|-----|------------|
D|-----|---------|-----|------------|
A|-----|---------|-----|------------|
E|-3---|-3-------|-3---|-(3)\-------|
                  (Use both tremelo picking and vibrato HERE) 


That's it!

I'm sure this tab is near enough 100% corect. Please RATE IT!

It's only like my third tab, so go easy on me plz.

Cya!



| /  slide up
| \  slide down
| h  hammer-on
| p  pull-off
| ~  vibrato
| +  harmonic
| x  Mute note
|(?) Tied Note
======================================================================





Comments


Popular Tenacious D tabs & chords
Dio Chords
History Chords
Pick Of Destiny 2 Chords
Destiny 2 Tabs
Master Exploder 5 Tabs
Medely (Intro) Tabs
Metal 3 Tabs
Metal 7 Tabs
One Note Song Complete Tabs
Rock Your Socks Off Ukulele


Song lyrics



↑ Back to top | Tablatures and chords are parodies/interpretations of the original songs. You may use it for private study, scholarship, research or language learning purposes only
© 2014 AZChords.com Contact us | Privacy policy | DMCA | Add/correct tabs | Request tabs | Top 50 tabs