>
 >
Keilbasa

Keilbasa Guitar Tabs

Tenacious D - Keilbasa chords, tabs, tablatures, lyrics

Guitar lessons | Add/correct | Request | Top 50 tabs Artists:  A B C D E F G H I J K L M N O P Q R S T U V W X Y Z 0-9

Keilbasa Guitar Tabs – Tenacious D

CD, Sheet music, Poster

Do you like Keilbasa? Share with your friends now
TabsTabs v2
THIS IS ABSOLUTELY PERFECT< I SPENT $ HOURS ON IT.

PLEASE TELL ME IF THERE IS ANYTHIGN I CAN ADD TO MAKE IT EVEN MORE PERFECT.

h = slide
/ = mute
b = bendy
d = drag


   V E R S E    1
E||--------------------------------------------|
B||---------------------------1----1/1/---1----|
G||---------3--0--3--0--------0h2--0/0/---0----|
D||---------0--0--0--0--0--0--3----3/3/---0h2--|
A||---------------------------------------3----|
E||--3--3--------------------------------------|
                                                                    
E||-----------------------------------------------------|
B||--1--1----1--------------------------1----1/1/--1----|
G||--0--0----0--------3--0--3--0--------0h2--0/0/--0----|
D||--0--0h2--0--------0--0--0--0--0--0--3----3/3/--0h2--|
A||--3--3----3-------------------------------------3----|
E||-------------3--3------------------------------------|

E||--------------------------------------------------------|
B||---------------------------1----1/1/---1----------------|
G||---------3--0--3--0--------0h2--0/0/---0----------------|
D||---------0--0--0--0--0--0--3----3/3/---0h2--0h2--0---0--|
A||---------------------------------------3-----------3----|
E||--3--3--------------------------------------------------|
                                                                    
E||--------------------------------------------|
B||----------------------------1----1/1/--1----|
G||----------------------------0h2--0/0/--0----|
D||----------------------------3----3/3/--0h2--|
A||-----2--2h3--2--0--2-------------------3----|
E||--3-------------------3--1------------------| REPEAT



   M U S I C A L    I N T E R L U D E
E||--6-/-6-/-6-/-6-/-6--6----------------------------------|
B||--8-/-8-/-8-/-8-/-8--8--10--8---------------------------|
G||-------------------------------10--9b--5h3--5h3--0------|
D||--------------------------------------------------------|
A||--------------------------------------------------------|
E||--------------------------------------------------------|

E||----------0----------0--1--0----------------------------|
B||-------1----------1-------------------------------------|
G||--0h3--------0h3--------------7d------------------------|
D||--------------------------------------------------------|
A||--------------------------------------------------------|
E||--------------------------------------------------------| REPEAT VERSE 1



   V E R S E    2
E||------------------------------------------|
B||--1--1--1--1----1--1--1--1----1--1--1--1--|
G||--2--0--0--0----2--0--0--0----2--0--0--0--|
D||--3--3--0--2----3--3--0--2----3--3--0--2--|
A||-----------3-------------3-------------3--|
E||------------------------------------------|



   S O L O
E||--6--6--6--6--6--6--6--6-------------------------|
B||--8--8--8--8--8--8--8--8--10--8------------------|
G||---------------------------------10--9B--5--5h3--|
D||-------------------------------------------------|
A||-------------------------------------------------|
E||-------------------------------------------------|

E||--------3--------3--------------|
B||--------------------------------|
G||--0--3-----0--3-----5--3--------|
D||--------------------------5-----|
A||-----------------------------3--|
E||--------------------------------|



   V E R S E    3
E||--------------------------------------------------|
B||--------------------------------------------------|
G||--------------------------------------------------|
D||--------------------------------------------------|
A||--3--3--3--2--2--3--2--0--3--3--3--3--3--3--3--0--|
E||--------------------------------------------------| x9





Comments


Popular Tenacious D tabs & chords
Kickapoo 1 Chords
Kickapoo 2 Chords
Lee Chords
Beelzeboss 3 Tabs
Kielbasa 5 Tabs
Sex Supreme Tabs
The Metal Tabs
Who Medley Live Tabs
Government Totally Sucks Ukulele
Marajuanaville Ukulele


Song lyrics



↑ Back to top | Tablatures and chords are parodies/interpretations of the original songs. You may use it for private study, scholarship, research or language learning purposes only
© 2014 AZChords.com Contact us | Privacy policy | DMCA | Add/correct tabs | Request tabs | Top 50 tabs