>
 >
Hbo Episode

Hbo Episode Guitar Tabs

Tenacious D - Hbo Episode chords, tabs, tablatures, lyrics

Guitar lessons | Add/correct | Request | Top 50 tabs Artists:  A B C D E F G H I J K L M N O P Q R S T U V W X Y Z 0-9

Hbo Episode Guitar Tabs – Tenacious D

CD, Sheet music, Poster

Do you like Hbo Episode? Share with your friends now
Tabs
Tenacious D - Episode 2 (HBO)


There are different recordings out there of some of 
these songs that might be played slightly different.

These are tabbed straight from episode 2 on HBO

______________________________________________________

Cosmic Shame

F#    - (244322)
E     - (022100)
A     - (X02220)
B     - (X24442)
Bsus4 - (X24452)


|---------2---------2-----2-----------------------------------------|
|---5-------5---5-----5-----5---5---4-----4h5p4---------4-----4-----|
|-----2-------------------------------4---------4---6-----4-----4---|
|-4-----4-----4---4-----4-----4---4-----4---------4---4-----4-----4-|
|-------------------------------------------------------------------|
|-------------------------------------------------------------------|

|---------2---------2-----2-----------------------------------------|
|---5-------5---5-----5-----5---5---4-----4h5p4---------4-----4-----|
|-----2-------------------------------4---------4---6-----4-----4---|
|-4-----4-----4---4-----4-----4---4-----4---------4---4-----4-----4-|
|-------------------------------------------------------------------|
|-------------------------------------------------------------------|


If I was gonna say just one thing to yíall tonight
Iíd say set the artist free
Iím talking about this artist in here, set it free
Iím saying quit your day job
Now I know a lot of you people here, youíre saying
I canít quit my day job, I got kids to feed Jack
Quit your day job, focus on your 

crafts, one time, before its all over, youíve died, youíve 
squandered it, ya fuckin robots
|----------------------------------------------------------|
|----------------------------4---X-4-4--X-4/5-----5--4-4-4-|
|-3---X---3--X-3---3---3-3-3-4---X-4-4--X-----4---4--4-4-4-|
|-4---X---4--X-4---4---4-4-4-4---X-4-4--X-------4----4-4-4-|
|-4---X-4-4--X-4-4-4-4-4-4-4-2---X-2-2--X------------2-2-2-|
|-2---X-0-2--X-2-0-2-0-2-2-2-------------------------------|

Now after a couple of years, of you focusing earnestly on 
your craft, KG and I will swoop in
|--------------------------------------------------------|
|----------------------------4---X-4-4--X-5--5--4--4-4-4-|
|-3---X---3--X-3---3---3-3-3-4---X-4-4--X-4--4--4--4-4-4-|
|-4---X---4--X-4---4---4-4-4-4---X-4-4--X-------4--4-4-4-|
|-4---X-4-4--X-4-4-4-4-4-4-4-2---X-2-2--X----------2-2-2-|
|-2---X-0-2--X-2-0-2-0-2-2-2-----------------------------|

we will check out your progress, and we will encourage you
to continue,  or we will say
|-----------------------------------------------------------|
|---------------------------------4---X-4-4--X-5--5--5--4-4-|
|-3---X---3---3---X---3---3---3---4---X-4-4--X-4--4--4--4-4-|
|-4---X---4---4---X---4---4---4---4---X-4-4--X-4-----4--4-4-|
|-4---X-4-4-4-4---X-4-4-4-4-4-4-0-2---X-2-2--X-2--------2-2-|
|-2---X-0-2-0-2---X-0-2-0-2-0-2-----------------------------|

F#
Stop.  And then seriously you must stop, or penalties will be 
created and enforced

  Cause listen                    this is the problem
|---------2---------2-----2---------------------------------------|
|---5-------5---5-----5-----5---5---4-----5-----5-------4---------|
|-----2-------------------------------4-----4-------4-------4---4-|
|-4-----4-----4---4-----4-----4---------4-----4-------4-------4---|
|---------------------------------2-------------------------------|
|-----------------------------------------------------------------|

Sometimes you follow you heart   sometimes your heart cuts a fart
|---------2---------2-----2---------------------------------------|
|---5-------5---5-----5-----5---5---4-----4-----4-4---------------|
|-----2-------------------------------4-----4-----4---------------|
|-4-----4-----4---4-----4-----4---------4-----4---4---------------|
|---------------------------------2---------------2---------------|
|-----------------------------------------------------------------|

Thatís the cosmic shame   Thatís the cosmic shame
|--------------------------------------------------------|
|----------------------------4---X-4-4--X-5--5--5--4-4-4-|
|-3---X---3--X-3---3---3-3-3-4---X-4-4--X-4--4--4--4-4-4-|
|-4---X---4--X-4---4---4-4-4-4---X-4-4--X-4--4--4--4-4-4-|
|-4---X-4-4--X-4-4-4-4-4-4-4-2---X-2-2--X-2--2--2--2-2-2-|
|-2---X-0-2--X-2-0-2-0-2-2-2-----------------------------|

F#
and I know what you are saying now
E                      A
what makes you guys so fuckin good
               B
I donít fuckin know, and I donít like it
F#                   E                              A
I say up going ha ha ha  why canít everybody fuckin have it
                        B                            F#
Cause this is the thing, some people learn it on the streets

Some people learn it in the schools
          B                                 Bsus4    B
Me and KG, we were fuckin born with it homes,     

just check it out

F#                           E
Ri bip ba dip dip dididip     Dididip dip dididip

A                   B
Didididididuuudooo    dididipduuudooo

F#                      E
(do dit    di di di dit   da do do    do do do   da do)      
Gigugit Gigugigugit git gigugigugit git  du ba dip gip

A                      B
(do do do do do doooooooooooooooooooooooooooooooo)
That shit came off the top of my fuckin head yíall

F#                             E
(Off the top of his head yíall, off the top of his head yíall) 
    Ahh  God                   why           why          why   

A                               B
(Off the top of his head yíall,   ahhhhh) 
        why            why           why

                F#
Itís the cosmic shame

__________________________________________________________________________

Sasquatch 

Bm - (X24432)
A  - (X02220)
E  - (022100)
F# - (X4432X)
G  - (X5543X) and (355433)
C  - (X35553)

(Bm)              A
   There was some scientists
E                        A
trying to figure out the sasquatch riddle
Bm                  A                    E      F# G F# 
  then they figured out it was a missing link.
Bm             A          E                     A
  In Search of Sasquatch, that was a kickass in search of
     Bm      A     E
with Leonard Nimoy kickin out the jams, Haaii
Bm             A          E              A
  He captured imagination, of people all around the globe
Bm             A                E     F# G F#
  His name was Sasquatch so Iím told 
Bm             A              C                     G      Bm
  His legendís ancient in the ancient scribe of the indian tribe
A        E     F# G F#  Bm
  Apache tribe

Scientists have proven that the Sasquatch, he is real
Take a look at the plaster cast of his foot now you know heís real
Listen real close to the audiotape now you will know that heís real
Couldnít be a man in gorilla suit, no fuckin way, no you know heís real
Real, real, real real, real, real, really real real

  Bm     A        C      G        Bm              A             
|-7---7---7-7-7---7---7---7-7-7---7-7-7-7-7-7-7-7-7-7-7-7-7-7-7-7-|
|-----------------------------------------------------------------|
|-----------------------------------------------------------------|
|-----------------------------------------------------------------|
|-----------------------------------------------------------------|
|-----------------------------------------------------------------|

  C          G                  Bm      A       C      G
|-10--7--10--12--12^---12^--10-----10---9-9-9------9-9-7-7---7--|
|-------------------------------------------------------------7-|
|---------------------------------------------------------------|
|---------------------------------------------------------------|
|---------------------------------------------------------------|
|---------------------------------------------------------------|

Donít take this personally, cause its not about your playing
No, Dude, your drumming is kickass
Its just that the D, its always just been me and KG
And weíre just not comfortable being a power trio

                             I hope there is no hard feelings
|-------------------------------------------------|
|---3-----3-----3-----3-----3-----3-----3-----3---|
|-----4-----4-----4-----4-----4-----4-----4-----4-|
|-------4-----4-----4-----------4-----4-----4-----|
|-2-----------------------2-----------------------|
|-------------------------------------------------|

|-------------------------------------------------|
|---3-----3-----3-----3-----3-----3-----3-----3---|
|-----4-----4-----4-----4-----4-----4-----4-----4-|
|-------4-----4-----4-----------4-----4-----4-----|
|-2-----------------------2-----------------------|
|-------------------------------------------------|

|-------------------------------------------------|
|---2-----2-----2-----2-----2-----2-----2-----2---|
|-----2-----2-----2-----2-----2-----2-----2-----2-|
|-------2-----2-----2-----------2-----2-----2-----|
|-0-----------------------0-----------------------|
|-------------------------------------------------|
     Sasquatch               We know your legendís 
|--------------------------------------------------|
|--3--3--3--3--3--3--3--3--2--2--2--2--2--2--2-----|
|---4--4--4--4--4--4--4--4--2--2--2--2--2--2--2----|
|----4--4--4--4--4--4--4-----2--2--2--2--2--2------|
|-2-----------------------0------------------------|
|--------------------------------------------------|
  real                        Sasquatch
|--------------------------------------------------|
|--3--3--3--3--3--3--3--3--3--3--3--3--3--3--3--3--|
|---4--4--4--4--4--4--4--4--4--4--4--4--4--4--4--4-|
|----4--4--4--4--4--4--4-----4--4--4--4--4--4--4---|
|-2-----------------------2------------------------|
|--------------------------------------------------|
  We know your love is    real
|--------------------------------------------------|
|--2--2--2--2--2--2--------3--3--3--3--3--3--3--3--|
|---2--2--2--2--2--2--------4--4--4--4--4--4--4--4-|
|----2--2--2--2--2--2--------4--4--4--4--4--4--4---|
|-0-----------------------2------------------------|
|--------------------------------------------------|
     Sasquatch                 
|-------------------------0-|
|--3--3--3--3-------------2-|
|---4--4--4--4------------2-|
|----4--4--4--4-----------2-|
|-2-----------------------0-|
|---------------------------|

You and Tenacious D are real.


This part is played while Sasquatch is running down ally.

JB plays this
  Bm          Bm          Bm          Bm
|--------------------------------------------------|
|--3--3--3--3--3--3--3--3--3--3--3--3--3--3--3--3--|
|---4--4--4--4--4--4--4--4--4--4--4--4--4--4--4--4-|
|----4--4--4-----4--4--4-----4--4--4-----4--4--4---|
|-2-----------2-----------2-----------2------------|
|--------------------------------------------------|
  A           A           Bm          Bm
|------------------------------------------|
|--2--2--2--2--2--2--2--2--3--3--3--3--3---|
|---2--2--2--2--2--2--2--2--4--4--4--4--4--|
|----2--2--2-----2--2--2-----4--4--4-----4-|
|-0-----------0-----------2-----------2----|
|------------------------------------------|
___________________________________________________

KG plays this
 Bm     Bm      Bm               Bm                            A
|-------------------14-----14-------15-14-12-14-12----12-14-12----|
|----------------12-----12-------------------------15----------15-|
|-----------------------------------------------------------------|
|-----------------------------------------------------------------|
|-----------------------------------------------------------------|
|-----------------------------------------------------------------|
             A                    Bm                Bm
|-------------------------------------------------------|
|--14p12-14------12-14--15---14---15-----14--12-12------|
|-------------------------------------------------------|
|-------------------------------------------------------|
|-------------------------------------------------------|
|-------------------------------------------------------|

The End
_____________________________________________________________

Tribute


Am     - (X02210)
G      - (320003)
F      - (X33211)
D      - (X00232)
C      - (X32010)
A1     - (X02200) (Asus2)
G1     - (3X2200) (Asus2/G)
F#1    - (2X0230) (Dsus2/F#)
F#2    - (2X0210) (Dm7sus2/F#) ?
F#3    - (2X0200) (?)
F1     - (X33210) (FM7) 
Amadd9 - (507500)

Fig 1
e|-------------0-0-0-0-0-0-----0-------0-0-0-0-0-|
B|-------------1-1-1-1-1-1h3p1p0h1-----1-1-1-1-1-|
G|-----0h2-----2-2-2-2-2-2-----2-------2-2-2-2-2-|
D|-0h2-------2-2-2-2-2-2-2-----2-----2-2-2-2-2-2-|
A|---------0---0-0-0-0-0-----------0---0-0-0-0-0-|
E|-----------------------------------------------|

A long time ago, me and my brother Kyle here, we were hitchhiking
Down a long and lonesome road, all of a sudden there shined a 
Shiny demon in the middle of the road. And he said

Play the best song in the world or Iíll eat your soul (soul)
e|-------------------------------------------------------------|
B|-------------------------------------------------------------|
G|-------------------------------------------------------------|
D|-------------------------------------------------------------|
A|-0-0-0-0-0-0-0-0-0-0-0-0-0-0-0-0-0-0-0-0-0-0-0-0-0-0-0-0-0-0-|
E|-------------------------------------------------------------|
 PM. . . . . . . . . . . . . . . . . . . . . . . . . . . .  

            Well me and Kyle       we looked at eachother
e|-----------0-0-0-0-0-0-0-----0-----0-0-0-0-0-0-|
B|-----------1-1-1-1-1-1-1h3p1p0h1---1-1-1-1-1-1-|
G|-2---2-----2-2-2-2-2-2-2-----2-----2-2-2-2-2-2-|
D|-0h2-0h2---2-2-2-2-2-2-2-----2-----2-2-2-2-2-2-|
A|-0---0---0-0-0-0-0-0-0-0---------0-0-0-0-0-0-0-|
E|-----------------------------------------------|

           And we each said         O.K.
e|-----------0-0-0-0-0-0-0-----------0-0-0-0-0-0-|
B|-----------1-1-1-1-1-1-1-----------1-1-1-1-1-1-|
G|-2---2-----2-2-2-2-2-2-2-2---2-----2-2-2-2-2-2-|
D|-0h2-0h2---2-2-2-2-2-2-2-0h2-0h2---2-2-2-2-2-2-|
A|-0---0---0-0-0-0-0-0-0-0-0---0---0-0-0-0-0-0-0-|
E|-----------------------------------------------|

       Am                          G
And we played the first thing that came to our heads
   F                           Am               G
It just so happened to be  the best song in the world
           F                         Am         G        F
It was the best song in the world ooohhhhyyaaaahhhhiiiiiioooo

And it saved our butts                  because the demon woulda killed us oh
e|---------------------5-7-----7-8-----8-2-----2-0-0-0-0-0-0-0-0-0-|
B|-------------------5-----5-------5-------3-----1-1-1-1-1-1-1-1-1-|
G|-----------------5---------5-------5-------2---2-2-2-2-2-2-2-2-2-|
D|---------------7-----7-6-----6-5-----5-4-----4-3-3-3-3-3-3-3-3-3-|
A|-----------------------------------------------------------------|
E|-----------------------------------------------------------------|

                   But he was forced to 
                          Set us free by the
                                 Honor code that
                                        Demons                  have to 
e|---0-0-0------------5------7------8------2------0-0-0-0-0-0-0-0-0-0-0-|
B|---1-1-1-----------5-5----5-5----5-5----3-3-----1-1-1-1-1-1-1-1-1-1-1-|
G|-2-2-2------------5---5--5---5--5---5--2---2----2-2-2-2-2-2-2-2-2-2-2-|
D|-3-2-2-----------7-----76-----65-----54-----4-3-3-3-3-3-3-3-3-3-3-3-3-|
A|-3-0-0---0-4/8-7------------------------------------------------------|
E|-1--------------------------------------------------------------------|

   Live by       cause its satanís surprise and its magic      and its a
e|---0-0-0-0-0-0-0-0-0-0-0-3----------------0-------0-2-------0-|
B|---1-1-1-1-1-1-1-1-1-1-1-1----------------1-------3-3-------3-|
G|-0-2-2-2-2-2-2-2-2-2-2-2-0----------------0-------2-2-------2-|
D|-0-2-2-2-2-2-2-2-2-2-2-2-2----------------2-------0-0-------0-|
A|-2-0-0-0-0-0-0-0-0-0-0-0-0----------------0-------------------|
E|-3------------------------------------------------------------|

  Mystical disguise        butthegerero       the develís song
e|-3-------0------7-----5-----3-----5-5-X-X-3-------------0-----|
B|-1-------1------8-----7-----5-----7-7-X-X-1-------------1-----|
G|-0-------0------9-----7-----5-----7-7-X-X-0-------------0-----|
D|-2-------2------0--0--0--0--0--0--0-0-X-X-2-------------2-----|
A|-0-------0--------------------------------0-------------0-----|
E|--------------------------------------------------------------|

   And its tragic       you are the mystical ide - ver - gin   and youíre
e|---------0--2--------3-----------------0---7-----5-----3-X-5-5-X-X-|
B|---------3--3--------1-----------------1---8-----7-----5-X-7-7-X-X-|
G|---------2--2--------0-----------------0---9--9--7-----5-X-7-7-X-X-|
D|---------0--0--------2-----------------2---0--0--0-----0---0-0-X-X-|
A|---------------------0-----------------0---------------------------|
E|-------------------------------------------------------------------|

   Rocking             * down sweep  
e|-----0-0-0-----0-0-0-0---------|
B|-----1-1-1-----3-3-3-1---------|
G|---0-0-0-0---0-0-0-0-2---------|
D|-2-2---2-2-0-0---0-0-2---------|
A|-3---------2---------0---------|
E|-------------------------------|

Fig 1
Well needless to say, the beast was stunned
Whip crack with your swampy tail, and the beast was done
He asks us (snort) be you angels
And we said nay, we are but men.     Rock

D         F         C         G          
Hiiiiiiiiiiiiiiiiiiiiiiiiiiiiiiiiiiiiiii

Am (1 strum)                                 Am 
Ohhwhoaowhoaoho   ohhwhoaowhoaoho  ohowhoahoaho   this is not
    G                    F      Am                G  F  Am
The greatest song in the world  no this is just a tribute
                      G                    F       Am 
Couldnít remember the greatest song in the world no    no this is a 
G      F     A1      G1                 F#1   F#2   F#3  F   
Tribute   ho            to the greatest song in the world   all-
A1          G1                 F#1   F#2   F#3  F 
right          to the Greatest song in the world   all-
A1                   G1                          F#1          F#2    F#3        
right it is just the best mother fuck its of the greatest song in the world 

           ow                  ow                   ow
Wer em ur pow chewga fukay fu fly chuga flabbablabba  a flabbablabba

Ow        aaaaaaaaaaaaaaaaaaaaaaa      aaaaaaaaaaaaaaaaaaaaaaaaaaaaaaaaaa
A duuiuu ooioom fam chuga flaba bababa flagabubba abugga awoomamumma woose

  A1       G1        F#1   F#2  F#3   F1
Sefem                      

A1                          G1              F#1    F#2      F#3     F1
  And the peculiar thing is this my friends,         the song we played
        A1                 G1                            F#1  
On that fateful night        didnít actually sound anything 
F#2       F#3    F1             A1           G1        F#1  F#2 
like this song.  This is just a tribute, you got to believe me,
F#3   F1            A1            G1         F#1    F1 
and I wish you were there, just a matter of opinion  aaahhh fuck  
A1        G1          F#1                   F1
good God, God loving,  Your so surprised to find you canít stop him,  
A1       G1            F#1               F1
upfar    arrrullyupfar Rich motherfucker give upa aahhh
 
E      F      E     F     E     F              Amadd9

_____________________________________________________________________





Comments


Popular Tenacious D tabs & chords
Road Bass Tabs
5 Needs Chords
He Teaches Me Chords
Marajuanaville 1 Chords
Double Team Intro Tabs
Flash Tabs
Im The Sidekickconan Tabs
Ozzys Promo Tabs
Rock Your Socks Off 2 Tabs
To Be The Best Ukulele


Song lyrics



↑ Back to top | Tablatures and chords are parodies/interpretations of the original songs. You may use it for private study, scholarship, research or language learning purposes only
© 2014 AZChords.com Contact us | Privacy policy | DMCA | Add/correct tabs | Request tabs | Top 50 tabs