» » »

F*** Her Gently Tabs (ver.3)

Artists:  A B C D E F G H I J K L M N O P Q R S T U V W X Y Z # 

F*** Her Gently Tabs (ver.3)

Tenacious D
Rating:
0/5 (0 votes)

Hard to play? Try these video lessons and learn fast.
                Band/Artist - Tenacious d
Song/Track - *** Her Gently
Tuning - Standered (EADGBe)

chord reference
Bm - x24432
G  - 320033
D  - xx0232
A  - x02220
E  - x22100
C  - x32010
?  - x32033

intro
e----2--------2---------------5--------5---------------------------
B-------3--------3----3----------7--------7-----7------------------
G----------2-------2----------------6--------6---------------------
D-0------------------------7---------------------------------------
A------------------------------------------------------------------
E------------------------------------------------------------------

e----3--------3-------------------------0--------------------------
B-------5--------5-----5-------------2-----------------------------
G----------4--------4-------------2--------------------------------
D-2----------------------------2-----------------------------------
A---------------------------0--------------------------------------
E------------------------------------------------------------------


verse
e----2--------2---------------5--------5---------------------------
B-------3--------3----3----------7--------7-----7------------------
G----------2-------2----------------6--------6---------------------
D-0------------------------7---------------------------------------
A------------------------------------------------------------------
E------------------------------------------------------------------

e----3--------3-------------------------0--------------------------
B-------5--------5-----5-------------2-----2--2h3p2----------------
G----------4--------4-------------2--------------------------------
D-2----------------------------2-----------------------------------
A---------------------------0--------------------------------------
E------------------------------------------------------------------

-Verse 1 LYRICS-	   
You don’t always have to *** her hard. 
In fact sometimes that’s not right to do.   
Sometimes you gotta make some love, and ***in’ give her some smooches too.

-Verse 2 LYRICS-
I’m gonna *** you softly.  I’m gonna screw you gently.
I’m gonna hump you sweetly.  I’m gonna ball you discreetly.

-Verse 3 LYRICS-
What’s your favorite posish?
That’s cool with me, it’s not my favorite, but I’ll do it for you.
What’s you favorite dish?
I’m not gonna cook it but I’ll order it from Zanzibar.



-Chorus 1-
Bm                      G        Bm                          G
Sometimes you’ve got to squeeze, sometimes you’ve got to say please,
D                        A
sometimes you got to say hey,


-Chorus 2-
Bm               G
And then you say hey I brought you flowers,
D                A
And then you say wait a minute sally, 
Bm               G                               D
I think I’ve got something in my teeth could you get it out for me
A
That’s ***in’ teamwork.


-Chorus 3-
Bm                          G
And then I’m gonna love you completely
D                              A
And then I’ll ***in’ *** you discreetly
Bm                             G
And then I’ll ***in’ ball you completely


-End-
D                  E          A   C    G    D
And then I’m gonna fuuuuuuuck you haaaaaaaaaard
?      G         D
haaaaaaaaaaaaaaaarrd.

thats it thanx.
            
Hard to play? Try these video lessons and learn fast. | Correct




comments powered by Disqus
↑ Back to top | Tablatures and chords are parodies/interpretations of the original songs. You may use it for private study, scholarship, research or language learning purposes only