» » »

Tenacious D, Dio Bass tabs (ver.1)

Artists:  A B C D E F G H I J K L M N O P Q R S T U V W X Y Z # 

Dio Bass tabs (ver.1)

Tenacious D Tabs
Rating:
0/5 (0 votes)
Dio lessons Tabs too difficult? Try these video lessons and learn fast
                tenacious d
dio
drop d

starts after guitar bit (play along with chords)
|------------------------|
|------------------------|
|-----------------3------|
|-0--0---1--0--0-----3-0-|

‘its time 2 pass the torch…' bit
|---------------------------------------------------------|
|---------------------------------------------------------|
|--3-3-3-3-3-3-----------------------3-3-3-3--------------|
|---------------5-5-3-3-3-3-0-0-0-0-----------5-5-5--5-0-0|

‘and we will make sure tht your very well..' bit
|----------------------------------------|
|----------------------------------------|
|--------------3-3-3-3-------------3-3-0-|
|-1-1-1-1-1-1----------1-1-1-1-1-1-------|

‘your sauce..' bit
|-----------------------------|
|-----------------------------|
|-------------3-3-3-3---------|
|-0-0-0-0-0-0----------5-5-5-5|x3

‘dio; time 2 go' bit
|------------------|---|----------|------------|repeat this
|------------------|-x2|----------|------------|last bit
|------------------|---|----------|-----3-3----|over the
|-3-3-3-3-5-5--0-0-|---|-3-3-3-3--|-0-0-----5-5|solo
            

comments powered by Disqus
↑ Back to top | Tenacious D Bass for Dio. Lyrics for acoustic guitar and electric guitar. Tablatures and chords are parodies/interpretations of the original songs. You may use it for private study, scholarship, research or language learning purposes only