» » »

Tenacious D, Cosmic Shame Tabs (ver.1)

Artists:  A B C D E F G H I J K L M N O P Q R S T U V W X Y Z # 

Cosmic Shame Tabs (ver.1)

Tenacious D Tabs
 Rating:
4/5 (7 votes)
Cosmic Shame lessons Tabs too difficult? Try these video lessons and learn fast
1
                F#    - (244322)
E     - (022100)
A     - (X02220)
B     - (X24442)
Bsus4 - (X24452)


|---------2---------2-----2-----------------------------------------|
|---5-------5---5-----5-----5---5---4-----4h5p4---------4-----4-----|
|-----2-------------------------------4---------4---6-----4-----4---|
|-4-----4-----4---4-----4-----4---4-----4---------4---4-----4-----4-|
|-------------------------------------------------------------------|
|-------------------------------------------------------------------|

|---------2---------2-----2-----------------------------------------|
|---5-------5---5-----5-----5---5---4-----4h5p4---------4-----4-----|
|-----2-------------------------------4---------4---6-----4-----4---|
|-4-----4-----4---4-----4-----4---4-----4---------4---4-----4-----4-|
|-------------------------------------------------------------------|
|-------------------------------------------------------------------|


If I was gonna say just one thing to y?all tonight
I?d say set the artist free
I?m talking about this artist in here, set it free
I?m saying quit your day job
Now I know a lot of you people here, you?re saying
I can?t quit my day job, I got kids to feed Jack
Quit your day job, focus on your

crafts, one time, before its all over, you?ve died, you?ve
squandered it, ya f**kin robots
|----------------------------------------------------------|
|----------------------------4---X-4-4--X-4/5-----5--4-4-4-|
|-3---X---3--X-3---3---3-3-3-4---X-4-4--X-----4---4--4-4-4-|
|-4---X---4--X-4---4---4-4-4-4---X-4-4--X-------4----4-4-4-|
|-4---X-4-4--X-4-4-4-4-4-4-4-2---X-2-2--X------------2-2-2-|
|-2---X-0-2--X-2-0-2-0-2-2-2-------------------------------|

Now after a couple of years, of you focusing earnestly on
your craft, KG and I will swoop in
|--------------------------------------------------------|
|----------------------------4---X-4-4--X-5--5--4--4-4-4-|
|-3---X---3--X-3---3---3-3-3-4---X-4-4--X-4--4--4--4-4-4-|
|-4---X---4--X-4---4---4-4-4-4---X-4-4--X-------4--4-4-4-|
|-4---X-4-4--X-4-4-4-4-4-4-4-2---X-2-2--X----------2-2-2-|
|-2---X-0-2--X-2-0-2-0-2-2-2-----------------------------|

we will check out your progress, and we will encourage you
to continue,  or we will say
|-----------------------------------------------------------|
|---------------------------------4---X-4-4--X-5--5--5--4-4-|
|-3---X---3---3---X---3---3---3---4---X-4-4--X-4--4--4--4-4-|
|-4---X---4---4---X---4---4---4---4---X-4-4--X-4-----4--4-4-|
|-4---X-4-4-4-4---X-4-4-4-4-4-4-0-2---X-2-2--X-2--------2-2-|
|-2---X-0-2-0-2---X-0-2-0-2-0-2-----------------------------|

F#
Stop.  And then seriously you must stop, or penalties will be
created and enforced

  Cause listen                    this is the problem
|---------2---------2-----2---------------------------------------|
|---5-------5---5-----5-----5---5---4-----5-----5-------4---------|
|-----2-------------------------------4-----4-------4-------4---4-|
|-4-----4-----4---4-----4-----4---------4-----4-------4-------4---|
|---------------------------------2-------------------------------|
|-----------------------------------------------------------------|

Sometimes you follow you heart   sometimes your heart cuts a fart
|---------2---------2-----2---------------------------------------|
|---5-------5---5-----5-----5---5---4-----4-----4-4---------------|
|-----2-------------------------------4-----4-----4---------------|
|-4-----4-----4---4-----4-----4---------4-----4---4---------------|
|---------------------------------2---------------2---------------|
|-----------------------------------------------------------------|

That?s the cosmic shame   That?s the cosmic shame
|--------------------------------------------------------|
|----------------------------4---X-4-4--X-5--5--5--4-4-4-|
|-3---X---3--X-3---3---3-3-3-4---X-4-4--X-4--4--4--4-4-4-|
|-4---X---4--X-4---4---4-4-4-4---X-4-4--X-4--4--4--4-4-4-|
|-4---X-4-4--X-4-4-4-4-4-4-4-2---X-2-2--X-2--2--2--2-2-2-|
|-2---X-0-2--X-2-0-2-0-2-2-2-----------------------------|

F#
and I know what you are saying now
E                      A
what makes you guys so f**kin good
               B
I don?t f**kin know, and I don?t like it
F#                   E                              A
I say up going ha ha ha  why can?t everybody f**kin have it
                        B                            F#
Cause this is the thing, some people learn it on the streets

Some people learn it in the schools
          B                                 Bsus4    B
Me and KG, we were f**kin born with it homes,

just check it out

F#                           E
Ri bip ba dip dip dididip     Dididip dip dididip

A                   B
Didididididuuudooo    dididipduuudooo

F#                      E
(do dit    di di di dit   da do do    do do do   da do)
Gigugit Gigugigugit git gigugigugit git  du ba dip gip

A                      B
(do do do do do doooooooooooooooooooooooooooooooo)
That sh*t came off the top of my f**kin head y?all

F#                             E
(Off the top of his head y?all, off the top of his head y?all)
    Ahh  God                   why           why          why

A                               B
(Off the top of his head y?all,   ahhhhh)
        why            why           why

                F#
It?s the cosmic shame
            
Submit corrections

comments powered by Disqus
↑ Back to top | Tenacious D Tabs for Cosmic Shame. Lyrics for acoustic guitar and electric guitar. 1 Tablatures and chords are parodies/interpretations of the original songs. You may use it for private study, scholarship, research or language learning purposes only