» » »

Tenacious D, City Hall Bass tabs (ver.1)

Artists:  A B C D E F G H I J K L M N O P Q R S T U V W X Y Z # 

City Hall Bass tabs (ver.1)

Tenacious D Tabs
 Rating:
3.8/5 (5 votes)
City Hall lessons Tabs too difficult? Try these video lessons and learn fast
                tenacious d
city hall
standard tuning

I am adapting this from the guitar versionnd is quite rough, but it shudnt b 2 bad

intro (under chords)
|-------------------------------------|
|-------------------------------------|
|-7---3--7--3--7--3-------------------|
|-------------------------------------|

preverse + verse + "city ***ty" bit
|-------------------------------------|
|-------------------------------------|
|-------------------------------------|
|-7-7-777--3-3-344-444----------------|

after “***ing fires…” (gentle bit)
|-------------------------------------| play at the beginning of each chord
|-------------------------------------|
|-------------------------------------|in the first measure of these, try only to so the 
part of each
|-0-00--3-33--5-55--1-11--------------| triplet, under the chord

break down bit
|----------------------------------------------|use a slapping technique
|----------------------------------------------|
|----------------------------------------------|i don\'t think i have the correct amount 
times each is played
|-2-2-2-2-2-2-3-3-3-3-3-3-3-3-1-1-1-1-1-1-1----|

goes on like that for a while then at the “people inside me are telling me to…” bit
|-------6h7p6---------------------------------6h7p6--10-11-10--7-5/|
|-----7---------7-8-7-8-8h10p8--------------7---------------7------|
|---7--------------------------8----------7------------------------|
|-5------------------------------8------5--------------------------|
that is the guitar bit, but it works quite well
            
Submit corrections

comments powered by Disqus
↑ Back to top | Tenacious D Bass for City Hall. Lyrics for acoustic guitar and electric guitar. Tablatures and chords are parodies/interpretations of the original songs. You may use it for private study, scholarship, research or language learning purposes only