» » »

City Hall Tabs (ver.3)

Artists:  A B C D E F G H I J K L M N O P Q R S T U V W X Y Z # 

City Hall Tabs (ver.3)

Tenacious D
Rating:
5/5 (1 vote)

Hard to play? Try these video lessons and learn fast.
                ----------------------------------------------------------------------------
                             CITY HALL - Tenacious D
----------------------------------------------------------------------------

This is the correct way to play it because i have the book. Please rate.

 "all you people up there......in city hall"
e|--------------------------------------------------------------------------|
B|--9-----------------------------------------------------------------------|
G|--9------------------------8----------------------------------------------|
D|--9------------------------9----------------------------------------------|
A|--7------------------------9----------------------------------------------|
E|--0------------------------7----------------------------------------------|
And carry on repeating those intro chords.

  |P.M-----------------------------------------------------|
e|---------------------------------------------------------|
B|---------------------------------------------------------|
G|--6------------------------------------------------------|
D|--7-7-7-7-7-7-7-7-6-7-6-7-6-7-6-7-6-7-6-7--6-------------|
A|--7-7-7-7-7-7-7-7-6-7-6-7-6-7-6-7-6-7-6-7--6-------------|
E|--5-5-5-5-5-5-5-5-4-5-4-5-4-5-4-5-4-5-4-5--4-------------|

Then...

e|---------------------------------------|
B|---------------------------------------|
G|--6-6----------2-2----------4-4--------|
D|--7-7---ect.---3-3---ect.---5-5--------|
A|--7-7----------3-3----------5-5--------|
E|--5-5----------1-1----------3-3--------|

Now, for the next bit. I realy cannot be bothered to type. Soo you will have to look on 
tabs to find the quite bit.
But the bit that builds up "we'll lead as two kings..." i have.
Here are the chords:
(244000) then, (355000)then, (022000)

So thats it for that bit. Now i am going to play the little bit that KG does.

e|--------------------------------------------------------------------------|
B|-----------------------------------------------------------------5--6-5---|
G|----------6h7--6--(6)\2-3-2-3--4s5--4--------------6h7--6--------5--------|
D|-------7-------------------------------5--------7----------7-----5------5-|
A|-----7-----------------------------------5---7---------------7------------|
E|---5---------------------------------------5------------------------------|

e|-----------|
B|---5---3---|
G|---5---4---|
D|-----------|
A|-----------|
E|-----------|

Thats all i can help you with. Hope it helps!
            
Hard to play? Try these video lessons and learn fast. | Correct




comments powered by Disqus
↑ Back to top | Tablatures and chords are parodies/interpretations of the original songs. You may use it for private study, scholarship, research or language learning purposes only