>
 >
Great Romances Of The 20th Century 1

Great Romances Of The 20th Century 1 Bass Tabs

Taking Back Sunday - Great Romances Of The 20th Century 1 chords, tabs, tablatures, lyrics

Guitar lessons | Add/correct | Request | Top 50 tabs Artists:  A B C D E F G H I J K L M N O P Q R S T U V W X Y Z 0-9

Great Romances Of The 20th Century 1 Bass Tabs – Taking Back Sunday

CD, Sheet music, Poster

Do you like Great Romances Of The 20th Century 1? Share with your friends now
Bass TabsBass Tabs v2Bass Tabs v3ChordsDrum TabsTabsTabs v2Tabs v3Tabs v4Ukulele
00% accurate with the notes but the rythem and scale changing is correct.. you get the idea

standard tuning [EADG]
INTRO (play this once)

G------------------------------------------------------
D-------------------------------------------------------
A------- 9-7-6-----4---6-7-6------9-7-6------4---777-666
E--7-----------0-------------7-----------0--------------

verrse 1 (play 4 times)

G------------------------------------------------------------------------
D------------------------------------------------------------------------
A------------------------------------ - 2-2-2-2-2-2-2-2------------------
E---4-4-4-4-4-4-4-4 - 0-0-0-0-0-0-0-0------------------ - 2-2-2-2-2-2-2-2

"she says.. cmon cmon" 
(play each part twice)

G------------------------
D------------------------
A------------------------
E--4-4----2-2---0-0---0-0

G------------------------------------------------------
D------------------------------------------------------
A------------------------------------------------------
E---4-4-4-4-4-4 - 2-2-2-2-2-2 - 0-0-0-0-0-0-0-0-0-0-0-0

"you always come close but this never comes easy" (4 TIMES)

G----------------------------------------------------------
D----------------------------------------------------------
A------------------------------ - 2-2-2-2-2-2-2-2-2-2-2-2--
E---4-4--4-4-4-4 - 2-2--2-2-2-2----------------------------

bridge... (about two times)

G-------------------------------------------------------------------------
D-------------------------------------------------------------------------
A--------------------9-9-9-9-9-9-9-9 - 7-7-7-7-7-7-7-7-7 - 9-9-9-9-9-9-9-9
E--7-7-7-7-7-7-7-7 - -----------------------------------------------------

beginning of end.. (right when it gets heavy after bridge)

G---------------------------------------------------------------
D---------------------------------------------------------------
A----------------------------------------4-4-4-4-4-4-4-4-4-4-4-4
E--4-4-4 - 2-2-2 - 4-4-4 - 2-2-2 - 4 - 2------------------------

ending ("im in your room")

G------------------------------------------------------------------------------------------------------
D------------------------------------------------------------------------------------------------------
A------------------------------------------------------------------------------------------------------
E---4-4-4-4-4-4-4-4-4-4-4-4 - 2-2-2-2-2-2-2-2-2-2-2-2 - 0-0-0-0-0-0-0-0-0-0-0-0-0-0-0-0-0-0-0-0-0-0-0-0

Lyrics:

September never stays this cold
Where i come from and you know
Im not one for complaining (for complaining)
But i love the way you roll excuses off the tip of your tounge
As i slowy fall apart
(slowly, quietly, slowly fall apart

I said this wont mean a thing come tomorrow
And thats exactly how ill make it seem 
Cuz im still not sleeping
Thinking ive crawled home from worse than this
So please please (im running out of sympathy)
I never said id take this, i never said id take this lying down
She says "(cmon cmon) lets just get this over with"
This always comes close but this never comes easy, this always comes close
I never said id take this lying down

Well i never said id take this lying down
But ive crawled home from worse than this
If its not keeping you up nights
That whats the point?

Im in your room, is this turning you on
Am i turning you on
I'm at the corner of your bed, are you turned on are u turned on are u turned on?





Comments


Popular Taking Back Sunday tabs & chords
Cute Without The 'e' Chords
Faith When I Let You Down 2 Chords
Makedamnsure 2 Chords
This Is All Now 2 Chords
Ghost Man On Third 3 Tabs
I Follow The Format Tabs
Liar It Takes One To Know One Tabs
Slowdance On The Inside Acoustic Intro Tabs
Swing Tabs
Where My Mouth Is 1 Tabs


Song lyrics



↑ Back to top | Tablatures and chords are parodies/interpretations of the original songs. You may use it for private study, scholarship, research or language learning purposes only
© 2014 AZChords.com Contact us | Privacy policy | DMCA | Add/correct tabs | Request tabs | Top 50 tabs