» » »

Great Romances Of The 20th Century Tabs (ver.1)

Artists:  A B C D E F G H I J K L M N O P Q R S T U V W X Y Z # 

Great Romances Of The 20th Century Tabs (ver.1)

Taking Back Sunday
Rating:
0/5 (0 votes)

Hard to play? Try these video lessons and learn fast.
                Tuneing:Standard E A D G B E
Submiter:Mark
Its a pretty simple song, you can figuer it out in a few minuts.


Intro 

e|----------------------------------------------------------------|
B|------------------------4--------------------------4------------|
G|-----4---4----4-----4-----4---4----4---4----4--------------4----|
D|---4-------4------4---4-----4----4---4---4-------4---4-------4--|
A|-2-----2-----2--------------------------------------------------|
E|----------------0------0--------2----------2---4---------0------|



Verse 1 (0.25)

e|-----------------------------------------------------------------------------|
B|-----------------------------------------------------------------------------|
G|--8-8-8-8-8-8-8-8--4-4-4-4-4-4-4-4--11-11-11-11-11-11-11-11--6-6-6-6-6-6-6-6-|
D|--x-x-x-x-x-x-x-x--x-x-x-x-x-x-x-x---x--x--x--x--x--x--x--x--x-x-x-x-x-x-x-x-|
A|--6-6-6-6-6-6-6-6--2-2-2-2-2-2-2-2---9--9--9--9--9--9--9--9--4-4-4-4-4-4-4-4-|
E|-----------------------------------------------------------------------------|


Break part (0.51)

e|------------------------------------------------|
B|----------------------4-------------------------|
G|---------4---------------4---------4------------|
D|------4-----4-------4------4-----4---4----------|
A|-------------------------------2--------2-------|
E|---4----------4---0-------------------------2---|


Verse 2 (0.56)

e|------------------------------------------------------------------------------
B|------------------------------------------------------------------------------
G|--4--3------------------------------------4-4-4-4-4-4-4-4---------------------
D|--4--3--6-6-6-6-6-6-6---2-2-2-2-2-2-2-2---4-4-4-4-4-4-4-4---4-4-4-4-4-4-4-4---
A|--2--1--6-6-6-6-6-6-6---2-2-2-2-2-2-2-2---2-2-2-2-2-2-2-2---4-4-4-4-4-4-4-4---
E|--------4-4-4-4-4-4-4---0-0-0-0-0-0-0-0---------------------2-2-2-2-2-2-2-2---



Verse 2 part 2 (1.10)

e|---11----7----7----9----7----7----|
B|-------7----7---------7----7------|
G|----------------------------------|
D|----------------------------------|
A|----------------------------------|
E|----------------------------------|


build up (cool high part) (1.22)

e|----11--11--11--11--11--11--11--9--9--9--9--9--9--9--9--7--7--7--7--7--7--7--|
B|-------7---7---7---7---7---7--7--7--7--7--7--7--7--7--7--7--7--7--7--7--7--7-|
G|-----------------------------------------------------------------------------|
D|-----------------------------------------------------------------------------|
A|-----------------------------------------------------------------------------|
E|-----------------------------------------------------------------------------|

continued...

e|---9--9--9--9--9--9--9--9--|
B|----7--7--7--7--7--7--7--7-|
G|---------------------------|
D|---------------------------|
A|---------------------------|
E|---------------------------|


we'll call the next bit a chorus (1.46)

e|-----------------------------------------------------------------------------|
B|-----------------------------------------------------------------------------|
G|------------------------------------4-4-4--6-6-6--8-8-8--6-6-6---------------|
D|--6-6-6-6-6-6-6-6--4-4-4-4-4-4-4-4--x-x-x--x-x-x--x-x-x--x-x-x---------------|
A|--6-6-6-6-6-6-6-6--4-4-4-4-4-4-4-4--2-2-2--4-4-4--6-6-6--4-4-4---------------|
E|--4-4-4-4-4-4-4-4--2-2-2-2-2-2-2-2-------------------------------------------|


on the 4th time play the octaves twice.


Interlude (2.13)

e|---11--------7--------9---------7---|
B|--------7------------------7--------|
G|------------------------------------|
D|------------------------------------|
A|------------------------------------|
E|------------------------------------|


Bridge (2.37)

e|----------------------------------------------------------------|
B|----------------------------------------------------------------|
G|---8-8-8--6-6-6--8-8-8--6-6-6--8-8--6--4-4-4-4-4-4-4-4-4-4-4-4--|
D|---x-x-x--x-x-x--x-x-x--x-x-x--x-x--x--x-x-x-x-x-x-x-x-x-x-x-x--|
A|---6-6-6--4-4-4--6-6-6--4-4-4--6-6--4--2-2-2-2-2-2-2-2-2-2-2-2--|
E|----------------------------------------------------------------|

on 4th time hold the last E octave (x2x4xx) for longer


Breakdown (3.04) This bit is v. hard to hear as theres so much going on (slow speed)

e|------------------------------------------------------------------------------
B|------------------------------------------------------------------------------
G|--8-8-8-8-8-8-8-8--4-4-4-4-4-4-4-4--11-11-11-11-11-11-11-11--6-6-6-6-6-6-6-6--
D|--x-x-x-x-x-x-x-x--x-x-x-x-x-x-x-x---x--x--x--x--x--x--x--x--x-x-x-x-x-x-x-x--
A|--6-6-6-6-6-6-6-6--2-2-2-2-2-2-2-2---9--9--9--9--9--9--9--9--4-4-4-4-4-4-4-4--
E|------------------------------------------------------------------------------|


End (3.28)

e|-------------------------------------------|
B|-------------------------------------------|
G|---8-8-8--6-6-6--8-8-8--6-6-6--8-8--6--4---|
D|---x-x-x--x-x-x--x-x-x--x-x-x--x-x--x--x---|
A|---6-6-6--4-4-4--6-6-6--4-4-4--6-6--4--2---|
E|-------------------------------------------|


Song order for Guitar 1

Intro x4
Verse x4
Break x1
Verse2 x2
Verse2 part 2 x4
Buildup x2
Chorus x4
Interlude x4
Bridge x4
Breakdown x2
End x1


Guitar 2

Intro (0.14)  violin sounding part

e|-------------------------------------------|
B|-------------------------------------------|
G|-------------------------------------------|
D|-----16--14--13--11------14--13--11--9-----|
A|-------------------------------------------|
E|-------------------------------------------|

Verse (0.25)

e|----------------------------------------------------------------------|
B|----------------------------------------------------------------------|
G|------------------------------------4-4-4-4-4-4-4-4-------------------|
D|--6-6-6-6-6-6-6-6--2-2-2-2-2-2-2-2--4-4-4-4-4-4-4-4--4-4-4-4-4-4-4-4--|
A|--6-6-6-6-6-6-6-6--2-2-2-2-2-2-2-2--2-2-2-2-2-2-2-2--4-4-4-4-4-4-4-4--|
E|--4-4-4-4-4-4-4-4--0-0-0-0-0-0-0-0-------------------2-2-2-2-2-2-2-2--|


Verse 2 (0.56)

e|----------------------------------------------------------------------------|
B|----------------------------------------------------------------------------|
G|--4--3------------------------------------4-4-4-4-4-4-4-4-------------------|
D|--4--3--6-6-6-6-6-6-6-6--2-2-2-2-2-2-2-2--4-4-4-4-4-4-4-4--4-4-4-4-4-4-4-4--|
A|--2--1--6-6-6-6-6-6-6-6--2-2-2-2-2-2-2-2--2-2-2-2-2-2-2-2--4-4-4-4-4-4-4-4--|
E|--------4-4-4-4-4-4-4-4--0-0-0-0-0-0-0-0-------------------2-2-2-2-2-2-2-2--|




Build up (1.22) listen for timing

e|------------------------------------|
B|------------------------------------|
G|------------------------------------|
D|---66------44------22------22-------|
A|---66------44------22------22-------|
E|---44------22------00------00-------|


Build up2 (palm mute) (1.34)

e|-----------------------------------------------------------------------------|
B|-----------------------------------------------------------------------------|
G|-----------------------------------------------------------------------------|
D|---6-6-6-6-6-6-6-6---4-4-4-4-4-4-4-4---2-2-2-2-2-2-2-2-2-2-2-2-2-2-2-2------- 
A|---6-6-6-6-6-6-6-6---4-4-4-4-4-4-4-4---2-2-2-2-2-2-2-2-2-2-2-2-2-2-2-2-------|
E|---4-4-4-4-4-4-4-4---2-2-2-2-2-2-2-2---0-0-0-0-0-0-0-0-0-0-0-0-0-0-0-0-------|


Chorus (1.46)

e|-----------------------------------------------|
B|-----------------------------------------------|
G|-----------------------------------------------|
D|---6-6-6-6---4-4-4-4---2-2-2-2-2-2-2-2---------|
A|---6-6-6-6---4-4-4-4---2-2-2-2-2-2-2-2---------|
E|---4-4-4-4---2-2-2-2---0-0-0-0-0-0-0-0---------|

4th time hold E for longer


Interlude (2.13)

e|--------------------------------|
B|--------------------------------|
G|--------------------------------|
D|--2~----9~----2~----9~----------|
A|--2~----9~----2~----9~----------|
E|--0~----7~----0~----7~----------|


Bridge (2.37)

e|---------------------------------------------------------------|
B|---------------------------------------------------------------|
G|---------------------------------------------------------------|
D|--6-6-6--4-4-4--6-6-6--4-4-4--6-6--4--2-2-2-2-2-2-2-2-2-2-2-2--|
A|--6-6-6--4-4-4--6-6-6--4-4-4--6-6--4--2-2-2-2-2-2-2-2-2-2-2-2--|
E|--4-4-4--2-2-2--4-4-4--2-2-2--4-4--2--0-0-0-0-0-0-0-0-0-0-0-0--|

4th time hold E chord for longer.



Breakdown (3.04) I came up with two ways to play this. Both sound alright but because 
there's so much going on im not sure which one it is.


e|---------------------------------------------------------------------|
B|---------------------------------------------------------------------|
G|---------------------------------------------------------------------|
D|--6-6-6-6-6-6-6-6--4-4-4-4-4-4-4-4--2-2-2-2-2-2-2-2-2-2-2-2-2-2-2-2--|
A|--6-6-6-6-6-6-6-6--4-4-4-4-4-4-4-4--2-2-2-2-2-2-2-2-2-2-2-2-2-2-2-2--|
E|--4-4-4-4-4-4-4-4--2-2-2-2-2-2-2-2--0-0-0-0-0-0-0-0-0-0-0-0-0-0-0-0--|

or

e|----------------------------------------------------------------------|
B|----------------------------------------------------------------------|
G|------------------------------------4-4-4-4-4-4-4-4-------------------|
D|--6-6-6-6-6-6-6-6--2-2-2-2-2-2-2-2--4-4-4-4-4-4-4-4--4-4-4-4-4-4-4-4--|
A|--6-6-6-6-6-6-6-6--2-2-2-2-2-2-2-2--2-2-2-2-2-2-2-2--4-4-4-4-4-4-4-4--|
E|--4-4-4-4-4-4-4-4--0-0-0-0-0-0-0-0-------------------2-2-2-2-2-2-2-2--|


End (3.28)

e|------------------------------------------|
B|------------------------------------------|
G|------------------------------------------|
D|--6-6-6--4-4-4--6-6-6--4-4-4--6-6--4--2---|
A|--6-6-6--4-4-4--6-6-6--4-4-4--6-6--4--2---|
E|--4-4-4--2-2-2--4-4-4--2-2-2--4-4--2--0---|


Song order

Intro x2
Verse x4
Verse2 x4
Build up x2
Build up2 x2
Chorus x2
Interlude x2
Bridge x4
Breakdown x2
End x 1


ok there u go, its a great song, i didnt add all the little detals
and sh*t but u can figuer it out buy ur self. Questions Coments e-mail me at
            
Hard to play? Try these video lessons and learn fast. | Correct




comments powered by Disqus
↑ Back to top | Tablatures and chords are parodies/interpretations of the original songs. You may use it for private study, scholarship, research or language learning purposes only