» » »

Taking Back Sunday, Your Own Disaster Tabs (ver.1)

Artists:  A B C D E F G H I J K L M N O P Q R S T U V W X Y Z # 

Your Own Disaster Tabs (ver.1)

Taking Back Sunday Tabs
Rating:
0/5 (0 votes)
Your Own Disaster lessons Tabs too difficult? Try these video lessons and learn fast
                Tuning: Standard

Intro/Verse: Strum all strings
 e|--0---0--|
 B|--0---0--|
 G|--4---1--| 
 D|--2---2--|
 A|--0---0--|
 E|--0---0--|

"And I Don't Think That You Know Just What Your Missing..."	
 e|--0--------0---|
 B|--0--------0---|
 G|--1---3---6--|
 D|--2---4---7--|
 A|--2---4---7--|
 E|--0---2---5--|

Fill: Piano Part Transcribed To Guitar
 e|---------------------|
 B|---------------------|
 G|--8-9------8-9----|
 D|------9--------9----|
 A|---------------------|
 E|---------------------|
 
 e|-------------------|
 B|--------10-9-7--|
 G|----8-9----------|
 D|--9---------------|
 A|------------------|
 E|------------------|

Bridge: "Hey Lush, have fun...."

 e|--------------------------------------------------|
 B|--------------------------------------------------|
 G|--999999--666666--444444--222222--|
 D|--999999--666666--444444--222222--|
 A|--777777--444444--222222--000000--|
 E|--------------------------------------------------|

This Song Is Such An Amazing Song And I Couldn’t Find Any Correct Tabs So I Decided To Tab It Out 
My Self This Is My First Tab So I Hope I Did Well. I‘m Pretty Sure It’s Correct E-mail Me And Tell Me 
            

comments powered by Disqus
↑ Back to top | Taking Back Sunday Tabs for Your Own Disaster. Lyrics for acoustic guitar and electric guitar. Tablatures and chords are parodies/interpretations of the original songs. You may use it for private study, scholarship, research or language learning purposes only