» » »

Taking Back Sunday, Great Romances Of The 20th Century Bass tabs (ver.2)

Artists:  A B C D E F G H I J K L M N O P Q R S T U V W X Y Z # 

Great Romances Of The 20th Century Bass tabs (ver.2)

Taking Back Sunday Tabs
 Rating:
4/5 (4 votes)
Great Romances Of The 20th Century lessons Tabs too difficult? Try these video lessons and learn fast
                Taking Back Sunday
Standard Tuning

Intro pt.1
|---------------------------------
|---------------------------------
|-------6--6—9-7--------6--6—9-7--
|-7—-9------------7—-9------------

Intro pt.2
|---------------------------------------------------
|---------------------------------------------------
|---976-9-7-6-4-4-4--7-6-4---976-9-7-6-4-4-4--7-6---
|-7------------------------7------------------------

verse pt.1 4x
|-----------------------------------------------------------------
|-----------------------------------------------------------------
|---------------------------------2-2-2-2-2-2-2-2----------------- 
|-4-4-4-4-4-4-4-4-0-0-0-0-0-0-0-0-----------------2-2-2-2-2-2-2-2-

verse pt.2  2x
|---------------------------------------------------------------------
|---------------------------------------------------------------------
|-2-1---------------------------------2-2-2-2-2-2-2-2----------------- 
|-----4-4-4-4-4-4-4-4-0-0-0-0-0-0-0-0-----------------2-2-2-2-2-2-2-2-

chorus 2x
|---------------------------------------------------------------------
|---------------------------------------------------------------------
|-2-1---------------------------------2-2-2-2-2-2-2-2----------------- 
|-----4-4-4-4-4-4-4-4-0-0-0-0-0-0-0-0-----------------2-2-2-2-2-2-2-2-

verse 2 pt.1
|----------------------------------------------------------------------
|----------------------------------------------------------------------
|----------------------------------------------------------------------
|-4-4-----2-2------0-0-----0-0-----4-4-----2-2-----0-0-----0-0---------

verse 2 pt.2 2x
|-----------------------------------------------------------------
|-----------------------------------------------------------------
|----------------------------------------------------------------- 
|-4-4-4-4-4-4-4-4-2-2-2-2-2-2-2-2-0-0-0-0-0-0-0-0-0-0-0-0-0-0-0-0-

breakdown
|------------------------------------------
|------------------------------------------
|-----------------2----2----2----2----2----
|-4-4-4-4-2-2-2-2—-0-0--0-0--0-0--0-0--0-0-

|-------------------------------------------
|-------------------------------------------
|---------2-2-2-2--2----2----2----2----2----
|-4-4-4-4--------—--0-0--0-0--0-0--0-0--0-0-

|------------------------------------------
|------------------------------------------
|-----------------2----2----2----2----2----
|-4-4-4-4-2-2-2-2—-0-0--0-0--0-0--0-0--0-0-

|-------------------------------------------
|-------------------------------------------
|---------2-2-2-2--2----2----2----2----2----
|-4-4-4-4--------—--0-0--0-0--0-0--0-0--0-0-

|--------------------------
|--------------------------
|-2----2----2----2----2----
|--0-0—-0-0--0-0—-0-0—-0-0-

interlude
|---------------------------
|---------------------------
|---------------------------
|-7~0~7~0~7~0~7~7-7-7-7-7-7-

bridge pt.1 3x
|---------------------------------------------
|---------------------------------------------
|--------------------------------------------- 
|-4-4-4\2-2-2/4-4-4\2-2-2/4-2-0-0-0-0-0-0-0-0-

bridge pt.2
|-----------------------------------------
|-----------------------------------------
|-----------------------------------------
|-4-4-4\2-2-2/4-4-4\2-2-2/4-2-0~--0~------

closing 2x
|-----------------------------------------
|-----------------------------------------
|-----------------------------------------
|-4-4-4-4-4-4-4-4-4-4-2-2-2-2-2-2-2-2-2-2-

|-----------------------------------------
|-----------------------------------------
|-----------------------------------------
|-0-0-0-0-0-0-0-0-0-0-0-0-0-0-0-0-0-0-0-0-

outro
|-----------------------------------
|-----------------------------------
|-----------------------------------
|-4-4-4\2-2-2/4-4-4\2-2-2/4-4\2-2-0-
            
Submit corrections

comments powered by Disqus
↑ Back to top | Taking Back Sunday Bass for Great Romances Of The 20th Century. Lyrics for acoustic guitar and electric guitar. Tablatures and chords are parodies/interpretations of the original songs. You may use it for private study, scholarship, research or language learning purposes only