>
 >
A Decade Under The Influence 1

A Decade Under The Influence 1 Guitar Tabs

Taking Back Sunday - A Decade Under The Influence 1 chords, tabs, tablatures, lyrics

Guitar lessons | Add/correct | Request | Top 50 tabs Artists:  A B C D E F G H I J K L M N O P Q R S T U V W X Y Z 0-9

A Decade Under The Influence 1 Guitar Tabs – Taking Back Sunday

CD, Sheet music, Poster

Do you like A Decade Under The Influence 1? Share with your friends now
Bass TabsChordsTabsTabs v2Tabs v3Tabs v4Ukulele
guitar 1\'s parts
----------------

intro
E|------00-----00----00----00-----00----00----00----00---||
B|------00-----00----00----00-----00----00----00----00---||
G|------66-----66----66----66-----66----66----66----66---||
D|------77-----77----77----77-----77----77----77----77---|| x2
A|---00-----00----00----00----00-----00----00----00------||
E|-------------------------------------------------------||

verse
E|------00-----00----00----00-----00----00----00----00---||
B|------00-----00----00----00-----00----00----00----00---||
G|------66-----66----66----66-----66----66----66----66---||
D|------77-----77----77----77-----77----77----77----77---||
A|---00-----00----00----00----00-----00----00----00------||
E|-------------------------------------------------------||

E|------00-----00----00----00-----00----00----00----00---||
B|------00-----00----00----00-----00----00----00----00---||
G|------66-----66----66----66-----66----66----66----66---||
D|------77-----77----77----77-----77----77----77----77---||
A|---55-----55----55----55----55-----55----55----55------||
E|-------------------------------------------------------||

E|------00-----00----00----00-----00----00----00----00---||
B|------00-----00----00----00-----00----00----00----00---||
G|------66-----66----66----66-----66----66----66----66---||
D|------77-----77----77----77-----77----77----77----77---||
A|---00-----00----00----00----00-----00----00----00------||
E|-------------------------------------------------------||

E|------00-----00----00----00-----00----00----00----0x---||
B|------00-----00----00----00-----00----00----00----0x---||
G|------66-----66----66----66-----66----66----66----6x---||
D|------77-----77----77----77-----77----77----77----7x---||
A|---55-----55----55----55----55-----55----55----55------||
E|-------------------------------------------------------||

Chorus
E|---------------------------------------||
B|---------------------------------------||
G|--2222222222222222--7777777777777777---||
D|--2222222222222222--7777777777777777---|| x3
A|--0000000000000000--5555555555555555---||
E|---------------------------------------||

repeat verse

Chorus 2
E|---------------------------------------||
B|---------------------------------------||
G|--2222222222222222--7777777777777777---||
D|--2222222222222222--7777777777777777---||
A|--0000000000000000--5555555555555555---||
E|---------------------------------------||

E|-----------------------------------------------------||
B|-----------------------------------------------------||
G|--2222222222222222-777777777777----------------------||
D|--2222222222222222-77777777777714/4444444444444444---||
A|--0000000000000000-55555555555514/4444444444444444---||
E|-------------------------------12/2222222222222222---||

E|---------------------||
B|---------------------||
G|---------------------||
D|--2222222222222222---||
A|--2222222222222222---||
E|--0000000000000000---||

E|-------------------------------------||
B|-------------------------------------||
G|-------------------------------------||
D|--44444444444444444444444444444444---||
A|--44444444444444444444444444444444---||
E|--22222222222222222222222222222222---||
pm  ....................

interlude
E|--000000-0-0-0-0-000000-0-0-0------------------------------------||
B|--333333-3-3-3-3-333333-3-3-3------------------------------------||
G|--222222-2-2-2-2-222222-2-2-2-77777777777777777777777777777777---||
D|--000000-0-0-0-0-000000-0-0-0-77777777777777777777777777777777---|| x2
A|------------------------------55555555555555555555555555555555---||
E|-----------------------------------------------------------------||

E|--000000-0-0-0-0-000000-0-0-0------||
B|--333333-3-3-3-3-333333-3-3-3------||
G|--222222-2-2-2-2-222222-2-2-2-7~---||
D|--000000-0-0-0-0-000000-0-0-0-7~---||
A|------------------------------5~---||
E|-----------------------------------||

break down
E|--0~--0~------0~--0~------0~--0~---||
B|--0~------0~--0~------0~--3~--2~---||
G|--2~----------1~----------2~--2~---||
D|--2~----------2~----------0~--0~---||
A|--0~----------2~-------------------||
E|--2~----------0~-------------------||

E|--0~--0~------0~----------0~--0~---||
B|--0~------0~--0~----------3~--2~---||
G|--2~----------1~----------2~--2~---||
D|--2~----------2~----------0~--0~---||
A|--0~----------2~-------------------||
E|--2~----------0~-------------------||

E|--0~--0~------0~--0~------0~--0~---||
B|--0~------0~--0~------0~--3~--2~---||
G|--2~----------1~----------2~--2~---||
D|--2~----------2~----------0~--0~---||
A|--0~----------2~-------------------||
E|--2~----------0~-------------------||

E|--0~--0~------0~--0~------0~---||
B|--0~------0~--0~------0~--3~---||
G|--2~----------1~----------2~---||
D|--2~----------2~----------0~---||
A|--0~----------2~---------------||
E|--2~----------0~---------------||

Outro
E|-----------------------------------------------------------------------||
B|-----------------------------------------------------------------------||
G|------------------------------------77777777777777777777777777777777---||
D|--4444444444444444-2222222222222222-77777777777777777777777777777777---|| x3
A|--4444444444444444-2222222222222222-55555555555555555555555555555555---||
E|--2222222222222222-0000000000000000------------------------------------||

E|------------------------------------------||
B|------------------------------------------||
G|-------------------------------------7~---||
D|--4444444444444444-77777777-99999999-7~---||
A|--4444444444444444-77777777-99999999-5~---||
E|--2222222222222222-55555555-77777777------||

guitar 2\'s parts
----------------

intro
(after guitar 1 plays once)
E|--------------------------------------||
B|--------------------------------------||
G|---77777777777777777777777777777777---||
D|---77777777777777777777777777777777---||
A|---55555555555555555555555555555555---||
E|--------------------------------------||

verse w/delay effect
E|--0~--0~--0~--0~--0~--0~--0~--0~---||
B|--0~--2~--0~--2~--0~--3~--0~--2~---||
G|--6~--2~--6~--2~--6~--2~--6~--2~---||
D|--7~--0~--7~--0~--7~--0~--7~--0~---||
A|--0~------5~------0~------5~-------||
E|-----------------------------------||

Chorus
E|---------------------------------------||
B|---------------------------------------||
G|--2222222222222222--7777777777777777---||
D|--2222222222222222--7777777777777777---|| x3
A|--0000000000000000--5555555555555555---||
E|---------------------------------------||

repeat verse

Chorus 2
E|---------------------------------------||
B|---------------------------------------||
G|--2222222222222222--7777777777777777---||
D|--2222222222222222--7777777777777777---|| x2
A|--0000000000000000--5555555555555555---||
E|---------------------------------------||

E|---------------------------------------||
B|---------------------------------------||
G|---------------------------------------||
D|--4444444444444444--2222222222222222---||
A|--4444444444444444--2222222222222222---||
E|--2222222222222222--0000000000000000---||

E|--------------------------------------||
B|--------------------------------------||
G|---77777777777777777777777777777777---||
D|---77777777777777777777777777777777---||
A|---55555555555555555555555555555555---||
E|--------------------------------------||
pm   ....................

interlude
E|-----------------------------------------------------------------||
B|-----------------------------------------------------------------||
G|------------------------------77777777777777777777777777777777---||
D|--444444-4-4-4-4-444444-4-4-4-77777777777777777777777777777777---|| x2
A|--444444-4-4-4-4-444444-4-4-4-55555555555555555555555555555555---||
E|--222222-2-2-2-2-222222-2-2-2------------------------------------||

E|-----------------------------------||
B|-----------------------------------||
G|------------------------------7~---||
D|--444444-4-4-4-4-444444-4-4-4-7~---||
A|--444444-4-4-4-4-444444-4-4-4-5~---||
E|--222222-2-2-2-2-222222-2-2-2------||

break down
(at the very end)
E|---------------------||
B|---------------------||
G|---------------------||
D|--4444444444444444---||
A|--4444444444444444---||
E|--2222222222222222---||
pm  ................

Outro
E|-----------------------------------------------------------------------||
B|-----------------------------------------------------------------------||
G|------------------------------------77777777777777777777777777777777---||
D|--4444444444444444-2222222222222222-77777777777777777777777777777777---|| x3
A|--4444444444444444-2222222222222222-55555555555555555555555555555555---||
E|--2222222222222222-0000000000000000------------------------------------||

E|------------------------------------------||
B|------------------------------------------||
G|-------------------------------------7~---||
D|--4444444444444444-77777777-99999999-7~---||
A|--4444444444444444-77777777-99999999-5~---||
E|--2222222222222222-55555555-77777777------||


alright thats the whole song, its pretty easy so have fun with it. this is my first tab 
rate it a 5 cause this is perfect





Comments


Popular Taking Back Sunday tabs & chords
Cute Without The E Bass Tabs
Error Operator Bass Tabs
Great Romances Of The 20th Century 1 Bass Tabs
Sink Into Me 2 Bass Tabs
Up Against Bass Tabs
You Know How I Do Bass Tabs
Didnt See That ComingIntro Tabs
Like An Angel Tabs
There's No "I" In Team 2 Tabs
Where My Mouth Is 2 Tabs


Song lyrics



↑ Back to top | Tablatures and chords are parodies/interpretations of the original songs. You may use it for private study, scholarship, research or language learning purposes only
© 2014 AZChords.com Contact us | Privacy policy | DMCA | Add/correct tabs | Request tabs | Top 50 tabs