>
 >
A Decade Under The Influence

A Decade Under The Influence Guitar Tabs

Taking Back Sunday - A Decade Under The Influence chords, tabs, tablatures, lyrics

Guitar lessons | Add/correct | Request | Top 50 tabs Artists:  A B C D E F G H I J K L M N O P Q R S T U V W X Y Z 0-9

A Decade Under The Influence Guitar Tabs – Taking Back Sunday

CD, Sheet music, Poster

Do you like A Decade Under The Influence? Share with your friends now
Bass TabsChordsTabsTabs v2Tabs v3Tabs v4Ukulele
--------------------------------------------------------------------------------------------
--------------------------------------------------------------------------------------------

Tuning: Guitars 1&2 Drop D, from low to high (DADGBE)
Gtr.1: Eddie Reyes
Gtr.2: Fred Mascherino

I'll update a lot of the tabs, but this is no difference then the real way to play the
song, the differences are the time signatures.
This is the CORRECT way to play this song. the only part with the delay is the only part
I'm not sure of, other than that its EXACT.

UPDATE: I put the lyric's on so you might uderstand it and because of request.

Ok, here is the exact part for the digi delay part of the song,(Fred Mascherino). Look
at that certain part of the tab to see the corrected an exact way. By the way i saw them
in concert a while ago. Fred palys that part without the delay unit. So instead of him
hitting it once and it repaets, he hits it over and over till he changes his finger
position, BUT he still uses the modulation effect(same thing as a wah pedal) so that it
elaborate. Hope this helps.

Update: 9-18-05
My computer has been completely wiped out of my EXACT tan for this song, so every1 that
has been emailing me, i am terribly sorry, but there really isnt much of a difference.
Just that instead of playing the chorus like this:
E|------------------------------------|----------------------------------|
B|------------------------------------|----------------------------------|
G|--6-6-6-6-6-6-6-6-6-6-6-6-6-6-6-----|--4-4-4-4-4-4-4-4-4-4-4-4-4-4-----|
D|--4-4-4-4-4-4-4-4-4-4-4-4-4-4-4-----|--2-2-2-2-2-2-2-2-2-2-2-2-2-2-----|
A|--4-4-4-4-4-4-4-4-4-4-4-4-4-4-4-----|--2-2-2-2-2-2-2-2-2-2-2-2-2-2-----|
D|--4-4-4-4-4-4-4-4-4-4-4-4-4-4-4-----|--2-2-2-2-2-2-2-2-2-2-2-2-2-2-----|

play it like this:
E|-----------------|
B|-----------------|
G|--6---6---6------|
D|--4---4---4------|
A|--4-4-4-4-4-4----|
D|--4-4-4-4-4-4----|
you play this for the first chorus's except for the outro, I will elaborate this more whne
i find time. Sorry for the this, i know many users have emailed me on this and i will send
them to all of yall as soon as i type it out again.





Intro
Gtr.1(clean elec.)
E|-------0-0-------0-0-------------|
B|-------0-0-------0-0-------------|
G|-------6-6-------6-6-------------|
D|--7-7--7-7--7-7--7-7-------------|   play 4x
A|--7-7-------7-7------------------|
D|--7-7-------7-7------------------|


E|--0-0-0--0-(0)-0-0---------------|
B|--0-0-0--0-(0)-0-0---------------|
G|--6-6-6--------------------------|
D|--7-7-7--------------------------|   play 4x
A|--0-0-0--------------------------|
D|--0-0-0--------------------------|

Gtr.2(clean elec.)
E|---------------------------------|
B|---------------------------------|
G|--7---7---7---7------------------|
D|--7---7---7---7------------------|   play 4x
A|--5-5-5-5-5-5-5-5----------------|
D|--0-0-0-0-0-0-0-0----------------|
This part is right, you just got to listen the song closely to hear it.


Gtr.1
E|-------0-0-------0-0-------------|
B|-------0-0-------0-0-------------|
G|-------6-6-------6-6-------------|
D|--7-7--7-7--7-7--7-7-------------|   play 4x
A|--7-7-------7-7------------------|
D|--7-7-------7-7------------------|

E|--0-0-0--0-(0)-0-0---------------|
B|--0-0-0--0-(0)-0-0---------------|
G|--6-6-6--------------------------|
D|--7-7-7--------------------------|   play 4x
A|--0-0-0--------------------------|
D|--0-0-0--------------------------|
      Repeat this part again

Gtr.2 (Line 6 delay unit w/modulation effect)
e|------------------|-------------------|
B|------------------|-------------------|
G|--9-(9)-(9)-(9)---|--(9)-(9)-(9)-(9)--|
D|--7-(7)-(7)-(7)---|--(7)-(7)-(7)-(7)--|
A|------------------|-------------------|
E|------------------|-------------------|
echo repeats------------------------- (play this twice)

e|------------------|-------------------|
B|------------------|-------------------|
G|--6-(6)-(6)-(6)---|--(6)-(6)-(6)-(6)--|
D|--7-(7)-(7)-(7)---|--(7)-(7)-(7)-(7)--|
A|------------------|-------------------|
E|------------------|-------------------|
echo repeats------------------------- (play this twice)

e|------------------|-------------------|
B|------------------|-------------------|
G|--9-(9)-(9)-(9)---|--(9)-(9)-(9)-(9)--|
D|--7-(7)-(7)-(7)---|--(7)-(7)-(7)-(7)--|
A|------------------|-------------------|
E|------------------|-------------------|

e|------------------|-------------------|
B|--9-(9)-(9)-(9)---|--(9)-(9)-(9)-(9)--|
G|--9-(9)-(9)-(9)---|--(9)-(9)-(9)-(9)--|
D|------------------|-------------------|
A|------------------|-------------------|
E|------------------|-------------------|

e|------------------|-------------------|
B|------------------|-------------------|
G|--6-(6)-(6)-(6)---|--(6)-(6)-(6)-(6)--|
D|--7-(7)-(7)-(7)---|--(7)-(7)-(7)-(7)--|
A|------------------|-------------------|
E|------------------|-------------------|


e|------------------|-------------------|
B|------------------|-------------------|
G|--7-(7)-(7)-(7)---|--(7)-(7)-(7)-(7)--|
D|--7-(7)-(7)-(7)---|--(7)-(7)-(7)-(7)--|
A|------------------|-------------------|
E|------------------|-------------------|

Chorus
Gtr.1 and 2
E|----------------------|----------------------|
B|----------------------|----------------------|
G|--9-9-9-9-9-9-9-9-----|--9-9-9-9-9-9-9-9-----|
D|--7-7-7-7-7-7-7-7-----|--0-0-0-0-0-0-0-0-----|   play 2x
A|--7-7-7-7-7-7-7-7-----|--0-0-0-0-0-0-0-0-----|
D|--7-7-7-7-7-7-7-7-----|--0-0-0-0-0-0-0-0-----|

Gtr.1 and 2
E|------------------------------------|----------------------------------|
B|------------------------------------|----------------------------------|
G|--6-6-6-6-6-6-6-6-6-6-6-6-6-6-6-----|--4-4-4-4-4-4-4-4-4-4-4-4-4-4-----|
D|--4-4-4-4-4-4-4-4-4-4-4-4-4-4-4-----|--2-2-2-2-2-2-2-2-2-2-2-2-2-2-----|
A|--4-4-4-4-4-4-4-4-4-4-4-4-4-4-4-----|--2-2-2-2-2-2-2-2-2-2-2-2-2-2-----|
D|--4-4-4-4-4-4-4-4-4-4-4-4-4-4-4-----|--2-2-2-2-2-2-2-2-2-2-2-2-2-2-----|


Gtr.1
E|-------0-0-------0-0-------------|
B|-------0-0-------0-0-------------|
G|-------6-6-------6-6-------------|
D|--7-7--7-7--7-7--7-7-------------|   play 4x
A|--7-7-------7-7------------------|
D|--7-7-------7-7------------------|

E|--0-0-0--0-(0)-0-0---------------|
B|--0-0-0--0-(0)-0-0---------------|
G|--6-6-6--------------------------|
D|--7-7-7--------------------------|   play 4x
A|--0-0-0--------------------------|
D|--0-0-0--------------------------|
      Repeat this part again

Gtr.2 (Line 6 delay unit w/modulation effect)
verse w/delay effect
e|------------------|-------------------|
B|------------------|-------------------|
G|--9-(9)-(9)-(9)---|--(9)-(9)-(9)-(9)--|
D|--7-(7)-(7)-(7)---|--(7)-(7)-(7)-(7)--|
A|------------------|-------------------|
E|------------------|-------------------|
echo repeats------------------------- (play this twice)

e|------------------|-------------------|
B|------------------|-------------------|
G|--6-(6)-(6)-(6)---|--(6)-(6)-(6)-(6)--|
D|--7-(7)-(7)-(7)---|--(7)-(7)-(7)-(7)--|
A|------------------|-------------------|
E|------------------|-------------------|
echo repeats------------------------- (play this twice)

e|------------------|-------------------|
B|------------------|-------------------|
G|--9-(9)-(9)-(9)---|--(9)-(9)-(9)-(9)--|
D|--7-(7)-(7)-(7)---|--(7)-(7)-(7)-(7)--|
A|------------------|-------------------|
E|------------------|-------------------|

e|------------------|-------------------|
B|--9-(9)-(9)-(9)---|--(9)-(9)-(9)-(9)--|
G|--9-(9)-(9)-(9)---|--(9)-(9)-(9)-(9)--|
D|------------------|-------------------|
A|------------------|-------------------|
E|------------------|-------------------|

e|------------------|-------------------|
B|------------------|-------------------|
G|--6-(6)-(6)-(6)---|--(6)-(6)-(6)-(6)--|
D|--7-(7)-(7)-(7)---|--(7)-(7)-(7)-(7)--|
A|------------------|-------------------|
E|------------------|-------------------|


e|------------------|-------------------|
B|------------------|-------------------|
G|--7-(7)-(7)-(7)---|--(7)-(7)-(7)-(7)--|
D|--7-(7)-(7)-(7)---|--(7)-(7)-(7)-(7)--|
A|------------------|-------------------|
E|------------------|-------------------|


Chorus
Gtr.1 and 2
E|----------------------|----------------------|
B|----------------------|----------------------|
G|--9-9-9-9-9-9-9-9-----|--9-9-9-9-9-9-9-9-----|
D|--7-7-7-7-7-7-7-7-----|--0-0-0-0-0-0-0-0-----|   play 2x
A|--7-7-7-7-7-7-7-7-----|--0-0-0-0-0-0-0-0-----|
D|--7-7-7-7-7-7-7-7-----|--0-0-0-0-0-0-0-0-----|

E|--------|
B|--------|
G|--------|
D|--------|  
A|--------|
D|--\16---|

Bridge, first part
Gtr.1 and 2
E|------------------------------------|----------------------------------|
B|------------------------------------|----------------------------------|
G|--6-6-6-6-6-6-6-6-6-6-6-6-6-6-6-----|--4-4-4-4-4-4-4-4-4-4-4-4-4-4-----|
D|--4-4-4-4-4-4-4-4-4-4-4-4-4-4-4-----|--2-2-2-2-2-2-2-2-2-2-2-2-2-2-----|
A|--4-4-4-4-4-4-4-4-4-4-4-4-4-4-4-----|--2-2-2-2-2-2-2-2-2-2-2-2-2-2-----|
D|--4-4-4-4-4-4-4-4-4-4-4-4-4-4-4-----|--2-2-2-2-2-2-2-2-2-2-2-2-2-2-----|


E|------------------------------------|-----------------------------------|
B|------------------------------------|--3-3-3-3-3-3-3-3-3-3-3-3-3-3-3-3--|
G|------------------------------------|--2-2-2-2-2-2-2-2-2-2-2-2-2-2-2-2--|
D|--0-0-0-0-0-0-0-0-0-0-0-0-0-0-0-0---|--0-0-0-0-0-0-0-0-0-0-0-0-0-0-0-0--|
A|--0-0-0-0-0-0-0-0-0-0-0-0-0-0-0-0---|--0-0-0-0-0-0-0-0-0-0-0-0-0-0-0-0--|
D|--0-0-0-0-0-0-0-0-0-0-0-0-0-0-0-0---|--0-0-0-0-0-0-0-0-0-0-0-0-0-0-0-0--|
    pm..................................................

Bridge, second part
Gtr.1 and 2
E|----------------------------|-------------------------------|
B|----------------------------|-------------------------------|
G|--7-7-7-6--6-6---6--6--6----|--7-7-7-6-6-6----6-6-6------|
D|--4-4-4-4--4-4---4--4--4----|--4-4-4-4--4-4----4-4-4-0----|   
A|--4-4-4-4--4-4---4--4--4----|--4-4-4-4-4-4----4-4-4-0----|
D|--4-4-4-4--4-4---4--4--4----|--4-4-4-4-4-4----4-4-4-0----|

E|-------------------------------------------------------|
B|------3-3-3-3-3-3-3-3-3-3-3-3-3-3-3-3-3-3-3-3-3-3-3----|
G|------2-2-2-2-2-2-2-2-2-2-2-2-2-2-2-2-2-2-2-2-2-2-2----|
D|--(0)-0-0-0-0-0-0-0-0-0-0-0-0-0-0-0-0-0-0-0-0-0-0-0----|
A|--(0)-0-0-0-0-0-0-0-0-0-0-0-0-0-0-0-0-0-0-0-0-0-0-0----|
D|--(0)-0-0-0-0-0-0-0-0-0-0-0-0-0-0-0-0-0-0-0-0-0-0-0----|
                     Play all this, 2x

E|----------------------------|---------------------------------|
B|----------------------------|---------------------------------|
G|--7-7-7-6--6-6---6--6--6----|--7-7-7-6-6-6----6-6-6--------|
D|--4-4-4-4--4-4---4--4--4----|--4-4-4-4--4-4----4-4-4-0-(0)--|   
A|--4-4-4-4--4-4---4--4--4----|--4-4-4-4-4-4----4-4-4-0-(0)--|
D|--4-4-4-4--4-4---4--4--4----|--4-4-4-4-4-4----4-4-4-0-(0)--|






interlude
Gtr.1
E|--0~-----|--0~-----|--2~-----|--0~-----|
B|--0~-----|--0~-----|--3~-----|--2~-----|
G|--2~-----|--1~-----|--2~-----|--2~-----|
D|--4~-----|--2~-----|--0~-----|--0~-----|   
A|--4~-----|--2~-----|--0~-----|--0~-----|
D|--4~-----|--2~-----|--0~-----|--0~-----|




Gtr.2
E|--------0-(0)--------|-------0-(0)--------|---------|--0~-----|
B|--------------0------|-------------0------|---------|--2~-----|
G|--2~-----------------|--------------------|--2~-----|--2~-----|
D|--4~-----------------|-2~-----------------|--0~-----|--0~-----|
A|--4~-----------------|-2~-----------------|--0~-----|--0~-----|
D|--4~-----------------|-2~-----------------|--0~-----|--0~-----|


Gtr.1
E|--0~-----|--0~-----|--2~-----|--0~-----|
B|--0~-----|--0~-----|--3~-----|--2~-----|
G|--2~-----|--1~-----|--2~-----|--2~-----|
D|--4~-----|--2~-----|--0~-----|--0~-----|   
A|--4~-----|--2~-----|--0~-----|--0~-----|
D|--4~-----|--2~-----|--0~-----|--0~-----|

Gtr.2
E|--------0-(0)--------|--------|---------|--0~-----|
B|--------------0------|--------|---------|--2~-----|
G|--2~-----------------|--------|--2~-----|--2~-----|
D|--4~-----------------|-2~-----|--0~-----|--0~-----|
A|--4~-----------------|-2~-----|--0~-----|--0~-----|
D|--4~-----------------|-2~-----|--0~-----|--0~-----|


Gtr.1
E|--0~-----|--0~-----|--2~-----|--0~-----|
B|--0~-----|--0~-----|--3~-----|--2~-----|
G|--2~-----|--1~-----|--2~-----|--2~-----|
D|--4~-----|--2~-----|--0~-----|--0~-----|   
A|--4~-----|--2~-----|--0~-----|--0~-----|
D|--4~-----|--2~-----|--0~-----|--0~-----|




Gtr.2
E|--------0-(0)--------|-------0-(0)--------|---------|--0~-----|
B|--------------0------|-------------0------|---------|--2~-----|
G|--2~-----------------|--------------------|--2~-----|--2~-----|
D|--4~-----------------|-2~-----------------|--0~-----|--0~-----|
A|--4~-----------------|-2~-----------------|--0~-----|--0~-----|
D|--4~-----------------|-2~-----------------|--0~-----|--0~-----|







Gtr.1
E|--0~-----|--0~-----|--2~-----|--0~-----|
B|--0~-----|--0~-----|--3~-----|--2~-----|
G|--2~-----|--1~-----|--2~-----|--2~-----|
D|--4~-----|--2~-----|--0~-----|--0~-----|   
A|--4~-----|--2~-----|--0~-----|--0~-----|
D|--4~-----|--2~-----|--0~-----|--0~-----|



Gtr.2
E|--------0-(0)--------|--------|---------|--0~-----|
B|--------------0------|--------|---------|--2~-----|
G|--2~-----------------|--------|--2~-----|--2~-----|
D|--4~-----------------|-2~-----|--0~-----|--0~-----|
A|--4~-----------------|-2~-----|--0~-----|--0~-----|
D|--4~-----------------|-2~-----|--0~-----|--0~-----|

When playing the interlude, arpeggiate the chords by raking the pick across the strings
because I don't have a clue how to play it. 

Gtr.1 and 2
E|----------------------------------------|
B|----------------------------------------|
G|----------------------------------------|
D|--0-0-0-0-0-0-0-0-0-0-0-0-0-0-0-0-0-----|
A|--0-0-0-0-0-0-0-0-0-0-0-0-0-0-0-0-0-----|
D|--0-0-0-0-0-0-0-0-0-0-0-0-0-0-0-0-0-----|
    pm...............................
I think this is enough palm muting, if not, e-mail me, and i'll update it.

Outro
Gtr.1 and 2
E|-----------------------------------------------------------------------|
B|-----------------------------------------------------------------------|
G|--6-6-6-6-6-6-6-6-6-6-6-6-6-6-6-6---4-4-4-4-4-4-4-4-4-4-4-4-4-4-4-4----|
D|--4-4-4-4-4-4-4-4-4-4-4-4-4-4-4-4---2-2-2-2-2-2-2-2-2-2-2-2-2-2-2-2----|
A|--4-4-4-4-4-4-4-4-4-4-4-4-4-4-4-4---2-2-2-2-2-2-2-2-2-2-2-2-2-2-2-2----|
D|--4-4-4-4-4-4-4-4-4-4-4-4-4-4-4-4---2-2-2-2-2-2-2-2-2-2-2-2-2-2-2-2----|
                                                 ^
E|--------------------------------------|        |
B|--3-3-3-3-3-3-3-3-3-3-3-3-3-3-3-3-----|        |
G|--2-2-2-2-2-2-2-2-2-2-2-2-2-2-2-2-----|        |
D|--0-0-0-0-0-0-0-0-0-0-0-0-0-0-0-0-----|====play 2x
A|--0-0-0-0-0-0-0-0-0-0-0-0-0-0-0-0-----|
D|--0-0-0-0-0-0-0-0-0-0-0-0-0-0-0-0-----|
I think it's the right amount, e-mail me if it's wrong.

Gtr.1 and 2
E|-----------------------------------------------------------------------|
B|-----------------------------------------------------------------------|
G|--6-6-6-6-6-6-6-6-6-6-6-6-6-6-6-6---4-4-4-4-4-4-4-4-4-4-4-4-4-4-4-4----|
D|--4-4-4-4-4-4-4-4-4-4-4-4-4-4-4-4---2-2-2-2-2-2-2-2-2-2-2-2-2-2-2-2----|
A|--4-4-4-4-4-4-4-4-4-4-4-4-4-4-4-4---2-2-2-2-2-2-2-2-2-2-2-2-2-2-2-2----|
D|--4-4-4-4-4-4-4-4-4-4-4-4-4-4-4-4---2-2-2-2-2-2-2-2-2-2-2-2-2-2-2-2----|

E|--------|      E|--------|    
B|--3-----|      B|--------| 
G|--2-----|      G|--------|
D|--0-----|  or  D|--0-----|
A|--0-----|      A|--0-----|
D|--0-----|      D|--0-----|

Piano in the interlude, tabbed for the guitar
E|--1716------1716--------------------------|
B|---------17---------17-----1514------------|
G|------------------------14---------14-------|
D|--------------------------------------------|
A|--------------------------------------------|
D|--------------------------------------------|
Let these notes ring a little. Listen to the song to know when to play it, You'll play
it 6x.

If yooh do not like the exact tab for the digi delay part, yooh may use this as an alternative.

Gtr.2 (Line 6 delay unit w/modulation effect)
E|--0~--0~--0~--0~--0~--0~--0~--0~---|
B|--0~--2~--0~--2~--0~--3~--0~--2~---|
G|--6~--2~--6~--2~--6~--2~--6~--2~---|
D|--7~--0~--7~--0~--7~--0~--7~--0~---|
A|--0~------5~------0~------5~-------|
D|-----------------------------------|

Gtr.2 (Line 6 delay unit w/modulation effect)
E|-----------------0(0-0-0-0-0-0-0)---------------------------------|
B|-5(5-5-5-5-5-5-5)5(5-5-5-5-5-5-5)2(2-2-2-2-2-2-2)5(5-5-5-5-5-5-5)-|
G|-6(6-6-6-6-6-6-6)6(6-6-6-6-6-6-6)2(2-2-2-2-2-2-2)2(2-2-2-2-2-2-2)-|
D|---------------------------------0(0-0-0-0-0-0-0)0(0-0-0-0-0-0-0)-|
A|------------------------------------------------------------------|
D|------------------------------------------------------------------|

E|-----------------4(4-4-4-4-4-4-4)---------------------------------|
B|-5(5-5-5-5-5-5-5)5(5-5-5-5-5-5-5)2(2-2-2-2-2-2-2)5(5-5-5-5-5-5-5)-|
G|-6(6-6-6-6-6-6-6)6(6-6-6-6-6-6-6)2(2-2-2-2-2-2-2)2(2-2-2-2-2-2-2)-|
D|---------------------------------0(0-0-0-0-0-0-0)0(0-0-0-0-0-0-0)-|
A|------------------------------------------------------------------|
D|------------------------------------------------------------------|

(Line 6 delay unit w/modulation effect)- this is basically a Wah pedal and a digital delay unit.

Verse 1:
Sad, small, sweet, so delicate 
We used to be this dying breed 
I got a bad feeling about this 
I got a bad feeling about this 

You kept still until the long drive home 
You slept safe and close to the window... 
I got a bad feeling about this 
I got a bad feeling about... 

Chorus:
Who's to say you'll have to go (I could go all night) 
Well say you'll have to go (I could go all...) 
To hell with you and all your friends 
To hell with you and all your friends, it's on 

Verse 2:
Sad, small, sure in porcelain 
You're skin and bones, I'm a nervous wreck 
I got a bad feeling about this (when it comes to this) 
I got a bad feeling about this 

You kept still until the long drive home 
You slept safe and close to the window 
I got a bad feeling about this 
I got a bad feeling about... 

Chorus to the breakdown:
Who's to say you'll have to go (I could go all night) 
Well say you'll have to go (I could go all...) 
To hell with you and all your friends 
To hell with you and all your friends, it's on 

I got a bad feeling about this (what is this for?) 
I got a bad feeling about... 

(Breakdown Starts)

Breakdown:
Anyone will do tonight 
Anyone will do tonight 
Close your eyes, just settle, settle 
Close your eyes, just settle, settle 
Anyone will do tonight 
Anyone will do tonight 
Close your eyes, just settle, settle 
Close your eyes, just settle, settle 
Anyone (anyone) will do tonight 
Anyone (anyone) will do tonight 
Close your eyes, just settle, settle 
Close your eyes, just settle, settle 

Outro:
Well I got a bad feeling about this, 
I got a bad feeling about this (to hell with you and all your friends, it's on). 
I'm coming over but it never was enough 
I thought it through and my worst brings out the best in you
Well I got a bad feeling about this 
I got a bad feeling about this (to hell with you and all your friends, it's on) 
I'm coming over but it never was enough 
I thought it through and my worst brings out the best in you
Well I got a bad feeling about this 
I got a bad feeling about this (to hell with you and all your friends, it's on) 
I'm coming over but it never was enough, 
I thought it through and my worst brings out the best in you
Well I got a bad feeling about this, 
I got a bad feeling about this (in you...). 
I'm coming over but it never was enough, 
I thought it through and my worst brings out the best in you
I got a bad feeling about this, 
I got a bad feeling about this (in you...). 
I'm coming over but it never was enough 
I thought it through and my worst brings out the best in you
I got a bad feeling about this, 
I got a bad feeling about this, 
I got a bad feeling about this (I am you) 
I got a bad feeling about this (I am you) 
I got a bad feeling about this (I am you) 
I got a bad feeling about this (I am you) 
I got it bad (I am you)
I got it bad 
I got it bad 
I got it bad 
I got it bad 
I got it bad




| / slide up
| ~ vibrato 
|( )let ring
And please rate it, this tab is pefect. TBS kicks ass!!!
===============================================================================





Comments


Popular Taking Back Sunday tabs & chords
Sink Into Me Bass Tabs
You Know How I Do Bass Tabs
Call Me In The Morning Chords
Makedamnsure Drum Tabs
Error Operator 5 Tabs
My Blue Heaven Tabs
New American Classic 8 Tabs
Sink Into Me Tabs
This Photograph Is Proof 2 Tabs
Call Me In The Morning Ukulele


Song lyrics



↑ Back to top | Tablatures and chords are parodies/interpretations of the original songs. You may use it for private study, scholarship, research or language learning purposes only
© 2014 AZChords.com Contact us | Privacy policy | DMCA | Add/correct tabs | Request tabs | Top 50 tabs