» » »

A Decade Under The Influence Bass tabs (ver.1)

Artists:  A B C D E F G H I J K L M N O P Q R S T U V W X Y Z # 

A Decade Under The Influence Bass tabs (ver.1)

Taking Back Sunday
Rating:
4/5 (15 votes)

Hard to play? Try these video lessons and learn fast.
                
i'm not sure if you guys hate seeing my names on tabs.. cuz my last tabs have sucked 
bad.. but i think i did a pretty good job.. at least it gives a good idea of the song.. 
or take a few extra notes he might hit.. here you go:

(Wait for guitar to play for a measure, bass comes in at about 0:06)
G-----------------------------------------------------------------|
D-----------------------------------------------------------------|
A-5-5-5-5-5-5-5-5-5-5-5-5-5-5-5-5-5-5-5-5-5-5-5-5-5-5-5-5-5-5-5-5-|
E-----------------------------------------------------------------|

(0:12) - the first note on the G string might not be a ghost note.. but it's played REALLY lightly
G----------------------------------------------------------(14)-13-11-99------------|
D----9h11~------9h11~--------------------9h11~------9h11~---------------------------|
A-0~~~~-----00~~~~--------------------0~~~~-----00~~~-------------------------------|
E----------------------7h9~~~-7h9~~~--------------------------------------7h9~~~-7--|h9~~~x

(0:37) - x4
G-----------------------------------------------------------------|
D-----------------------------------------------------------------|
A-0-0-0-0-0-0-0-0-0-0-0-0-0-0-0-0-5-5-5-5-5-5-5-5-5-5-5-5-5-5-5-5-|
E-----------------------------------------------------------------|

(0:55-0:56)
G----------------------------------------------------------(14)-13-11-99------------|
D----9h11~------9h11~--------------------9h11~------9h11~---------------------------|
A-0~~~~-----00~~~~----/2h4~~~-2h4~~~--0~~~~-----00~~~--------------------/2h4~~~-2--|h4~~~/
E-----------------------------------------------------------------------------------|

(1:20) - x2
G-----------------------------------------------------------------|
D-----------------------------------------------------------------|
A-0-0-0-0-0-0-0-0-0-0-0-0-0-0-0-0-5-5-5-5-5-5-5-5-5-5-5-5-5-5-5-5-|
E-----------------------------------------------------------------|

(1:31-1:32)
G--------------------------------------------------------------------|
D--------------------------------------------------------------------|
A-\9/4-4-4-4-4-4-4-4-4-4-4-4-4-4-4-4-2-2-2-2-2-2-2-2-2-2-2-2-2-2-2-2-|
E--------------------------------------------------------------------|

(1:38)
G-------------------------------------|
D-------------------------------------|
A-0-0-0-0-0-0-0-0-0-0-0-0-0-0-0-0-\9/-|
E-------------------------------------|

(1:45) - x3 (on third time on play the 2's and when you get to the 7 let it ring out)
G-----------------------------------------------------------------------------------------------------------|
D-----------------------------------------------------------------------------------------------------------|
A-------------------------------------------7-7-7-7-7-7-7-7-5-5-5-5-5-5-5-5-4-4-4-4-4-4-4-4-2-2-2-2-2-2-2-2-|
E-2-2-2-2-2-2-2--2--2--2-2-2-2-2-2-2--2--2------------------------------------------------------------------|

(2:17)
G--------------------------------------------------------------------------------|
D------------------------------------------------9h11-11-11-9-7-7----------------|
A-----------------5~~~~~--5~~~~~----------------------------------5~~~~~--5~~~~~-| (keep 
on next line>>)
E-2~~~~~--0~~~~~------------------2~~~~~--0~~~~~---------------------------------|

G---------------------------------------------------------------------------------------------------------|
D----------------9h11-11-11-9-7-7-----------------------9h11-11-11-9-7-7--------9h11-11-11-9-14-14--------|
A-9~~~~~--7~~~~~------------------5~~~~~-5~~~~~--9~~~~~------------------7~~~~~--------------------5~~~~~-|
E---------------------------------------------------------------------------------------------------------|

(3:03)
G---------------------------------|
D---------------------------------|
A-5-5-5-5-5-5-5-5-5-5-5-5-5-5-5-5-|
E---------------------------------|

(3:06)
G-------------------------------------------------------------------------------------------------|
D-------------------------------------------------------------------------------------------------|

(next line>>)
E-2-2-2-2-2-2-2-2-2-2-2-2-2-2-2-2-0-0-0-0-0-0-0-0-0-0-0-0-0-0-0-0---------------------------------|

G-------------------------------------------------------------------------------------------------|
D-------------------------------------------------------------------------------------------------|
A-5-5-5-5-5-5-5-5-5-5-5-5-5-5-5-5-----------------------------------------------------------------|
E---------------------------------2-2-2-2-2-2-2-2-2-2-2-2-2-2-2-2-0-0-0-0-0-0-0-0-7h9-9-9-7h9-9-9-|

G-------------------------------------------------------------------------------------------------|
D-------------------------------------------------------------------------------------------------|
A-5-5-5-5-5-5-5-5-5-5-5-5-5-5-5-5-5-5-5-5-5-5-5-5-5-5-5-5-5-5-5-5---------------------------------|
E-----------------------------------------------------------------2-2-2-2-2-2-2-2-2-2-2-2-2-2-2-2-|

G-------------------------------------------------------------------------------------------------|
D-------------------------------------------------------------------------------------------------|
A---------------------------------5-5-5-5-5-5-5-5-5-5-5-5-5-5-5-5-5-5-5-5-5-5-5-5-5-5-5-5-5-5-5-5-|
E-0-0-0-0-0-0-0-0-0-0-0-0-0-0-0-0-----------------------------------------------------------------|

G-------------------------------------------------------------------------------------------------|
D-------------------------------------------------------------------------------------------------|
A-----------------------------------------------------------------5~~~~~~~~~~---------------------|
E-2-2-2-2-2-2-2-2-2-2-2-2-2-2-2-2-0-0-0-0-0-0-0-0-0-0-0-0-0-0-0-0---------------------------------|
            
Hard to play? Try these video lessons and learn fast. | Correct




comments powered by Disqus
↑ Back to top | Tablatures and chords are parodies/interpretations of the original songs. You may use it for private study, scholarship, research or language learning purposes only