» » »

System Of A Down, Know Tabs (ver.1)

Artists:  A B C D E F G H I J K L M N O P Q R S T U V W X Y Z # 

Know Tabs (ver.1)

System Of A Down Tabs
 Rating:
4/5 (4 votes)
Know lessons Tabs too difficult? Try these video lessons and learn fast
1
                PROPS GO TO: Mark Zabel

Completely Transcribed In Order.

Intro
D|--------------------
A|--------------------
F|-------------------- Play 4x
C|--0--8888--00--88---
G|--0--8888--00--88---
C|--0--8888--00--88---

 ("Cursed Earth")
D|-----------------------
A|-----------------------
F|----------------------- Play 8x
C|----8888-----44--------
G|----8888-----44--------
C|--0-8888--0--44--------
D|---**-****-**-****-**-****-**-****--------------------- (*10th Fret)
A|-------------------------------------------------------
F|------------------------------------------------------- Play 1x
C|-------------------------------------------------------
G|-------------------------------------------------------
C|-------------------------------------------------------
                  
Before Verse
D|----------------------
A|----------------------
F|---------------------- Play 8x
C|--00-0-0-3------------
G|--00-0-0-3------------
C|--00-0-0-3------------
  PM.. . 
Verse A
D|----------------
A|----------------
F|---------------- Play 8x
C|---00-0-0-3-----
G|----------------
C|----------------
  Palm Muted
Verse B
D|----------------
A|----------------
F|---------------- Play 8x       Variation Changes A Little Bit...
C|---00-0-00-3----
G|----------------
C|----------------
  Palm Muted
Chorus
D|-----------------------------------------
A|-----------------------------------------
F|----------------------------------------- Play 2x
C|-0-2-3-333----0-2--3--xx-xxx-------------
G|-0-2-3-333----0-2--3--xx-xxx-------------
C|-0-2-3-333----0-2--3--xx-xxx-------------
D|-----------------------------------------
A|-----------------------------------------
F|----------------------------------------- Play 1x
C|-0-2-3-333----0-2--3---------------------
G|-0-2-3-333----0-2--3---------------------
C|-0-2-3-333----0-2--3---------------------
D|-----------------------------------------
A|-----------------------------------------
F|----------------------------------------- Play 1x
C|-0-2-3-333----0-2--3--xx-xxx-------------
G|-0-2-3-333----0-2--3--xx-xxx-------------
C|-0-2-3-333----0-2--3--xx-xxx-------------
Before Verse
D|----------------------
A|----------------------
F|---------------------- Play 8x
C|--00-0-0-3------------
G|--00-0-0-3------------
C|--00-0-0-3------------
  PM.. . 
Verse A
D|----------------
A|----------------
F|---------------- Play 8x
C|---00-0-0-3-----
G|----------------
C|----------------
  Palm Muted
Verse B
D|----------------
A|----------------
F|---------------- Play 8x         
C|---00-0-00-3----
G|----------------
C|----------------
  Palm Muted
Chorus
D|-----------------------------------------
A|-----------------------------------------
F|----------------------------------------- Play 2x
C|-0-2-3-333----0-2--3--xx-xxx-------------
G|-0-2-3-333----0-2--3--xx-xxx-------------
C|-0-2-3-333----0-2--3--xx-xxx-------------
D|-----------------------------------------
A|-----------------------------------------
F|----------------------------------------- Play 1x
C|-0-2-3-333----0-2--3---------------------
G|-0-2-3-333----0-2--3---------------------
C|-0-2-3-333----0-2--3---------------------
D|-----------------------------------------
A|-----------------------------------------
F|----------------------------------------- Play 1x
C|-0-2-3-333----0-2--3--xx-xxx-------------
G|-0-2-3-333----0-2--3--xx-xxx-------------
C|-0-2-3-333----0-2--3--xx-xxx-------------


D|-----------------------------------------
A|-----------------------------------------
F|----------------------------------------- Play 3x
C|-xx-xxx----------------------------------
G|-xx-xxx----------------------------------
C|-xx-xxx----------------------------------


-----------------------------------------
-----------------------------------------
-----------------------------------------
--00-000--00-000--00-000--00-000--------- Play 2x
--00-000--00-000--00-000--00-000---------
--00-000--00-000--00-000--00-000---------
-------------10--------------------------
-------------10--------------------------
----------------------------------------- Play 3x
--7-------10-----------------------------
--5-------8------------------------------
--0--------------------------------------
-----------------------------------------
-----------------------------------------
----------------------------------------- Play 1x       
--7----------------10--------10---------- 
--5----------------8---------8-----------
--0--------------------------------------
-----------------------------------------------------
-----------------------------------------------------
----------------------------------------------------- Play 2x
-0-0-0-00-0000-0000---3-3-3-33333-33-333333----------
-----------------------------------------------------
-----------------------------------------------------
Palm Mute
----------------------------------------------------
----------------------------------------------------
---------------------------------------------------- Play 2x
-0-0-0-00-0000-0000---3-3-3-33333-33-333333---------
-0-0-0-00-0000-0000---3-3-3-33333-33-333333---------
-0-0-0-00-0000-0000---3-3-3-33333-33-333333---------
Palm Mute A Little

Chorus
D|-----------------------------------------
A|-----------------------------------------
F|----------------------------------------- Play 2x
C|-0-2-3-333----0-2--3--xx-xxx-------------
G|-0-2-3-333----0-2--3--xx-xxx-------------
C|-0-2-3-333----0-2--3--xx-xxx-------------
D|-----------------------------------------
A|-----------------------------------------
F|----------------------------------------- Play 1x
C|-0-2-3-333----0-2--3---------------------
G|-0-2-3-333----0-2--3---------------------
C|-0-2-3-333----0-2--3---------------------
D|-----------------------------------------
A|-----------------------------------------
F|----------------------------------------- Play 1x
C|-0-2-3-333----0-2--3--xx-xxx-------------
G|-0-2-3-333----0-2--3--xx-xxx-------------
C|-0-2-3-333----0-2--3--xx-xxx-------------
            
Submit corrections

comments powered by Disqus
↑ Back to top | System Of A Down Tabs for Know. Lyrics for acoustic guitar and electric guitar. 1 Tablatures and chords are parodies/interpretations of the original songs. You may use it for private study, scholarship, research or language learning purposes only