» » »

Roulete Tabs

Artists:  A B C D E F G H I J K L M N O P Q R S T U V W X Y Z # 

Roulete Tabs

(ver. 1)
System Of A Down Tabs
 Rating:
4/5 (4 votes)
    Roulete lessons Tabs too difficult? Try these video lessons and learn fast
                Standard Tuning EADGBE
I know system plays in Drop C but this is an alternative version to play this song to sound just as equivalent or better.

VERSE:
---8-----8------12-----7------10-----10------5-----7-----8-----8------12-----7
-8---8-8---8/11----0-6----7/9----9-9----0-4---0-6----0-8---8-8---8/11----0-6--

-----------------------------
-----------------------------
-----10-----10------5-----7--
-----------------------------
-----------------------------
-7/9----9-9----0-4----0-6---0


CHORUS:
----8-----8-----4-----4-----7-----7-----5-----7-----8-----8-----4-----4-----7-
--8---8-8---0-3---3-3---0-6---6-6---0-4---0-6---0-8---8-8---0-3---3-3---0-6---

-----------------
-----------------
----7-----5-----7
-----------------
-----------------
6-6---0-4---0-6--


SOLO:
-8---8h10-11---10h11-13---10-11-13-11-10\8-10-11-10-8-8---------------------
--------------------------------------------------------8-8-8h9-11-9-8\6-8-9

-----------------------------/11
-8-6-6-------8h9--8-8-6-6-4-4---
-------------8h10-8-8-7-7-5-5---
--------8-8---------------------   REPEAT
--------------------------------
--------------------------------



END:
       -3~~~~~
       -4~~~~~
       -5~~~~~
Cm     -5~~~~~
       -3~~~~~
        x




ORDER OF EVENTS

1) Verse x2
2) Chorus x1
3) Verse x2
4) Chorus x2
5) SOLO / Verse x2
6) Chorus x2
7) Verse x2
8) End
            
Submit corrections

↑ Back to top | System Of A Down Tabs for Roulette. Lyrics for acoustic guitar and electric guitar. Tablatures and chords are parodies/interpretations of the original songs. You may use it for private study, scholarship, research or language learning purposes only