» » »

System Of A Down, Psycho Tabs (ver.1)

Artists:  A B C D E F G H I J K L M N O P Q R S T U V W X Y Z # 

Psycho Tabs (ver.1)

System Of A Down Tabs
Rating:
0/5 (0 votes)
Psycho lessons Tabs too difficult? Try these video lessons and learn fast
                PROPS GO TO: ERIC XAVIER TROLLER (MEX)

this is the bass intro  (X2)

--------------------------------------------------------------
--------------------------------------------------------------
--------------------------------------------------------------
--------------------------------------------------------------
--------------------------------------------------------------
--2----2---2-2----2-2--2-2-2-2--2----2---2-2---2-2--2-2-2-2---


--------------------------------------------------------------
--------------------------------------------------------------
--------------------------------------------------------------
--------------------------------------------------------------
--------------------------------------------------------------
--0----0---0-0---0-0---0-0-0-0--0----0---0-0---0-0--0-0-0-0---

this is the guitar intro (X2)

(A)
-12--X--12--X--12--X-X-12--X----12--X--X-12--X--12--X--12--X-X---

-10--X--10--X-X-10--X--10--X-X--10--X-X-10--X-X-10--X--10--X-X---

 ^    ^       ^           ^    ^    ^    ^         ^    ^    ^    ^    ^      ^    ^
-13--13------13----------13---13---13---13--------13---13---13---13---13-----13---13-

 ^   ^   ^   ^     ^   ^    ^   ^ 
-13--13--13--13----13--13---13--13------
----------------------------------------
----------------------------------------
----------------------------------------
----------------------------------------
----------------------------------------

IN THIS PART START THE SONG 
(B)
-2--2--2----------2--2--2-----------2--2--2------------2--2--2-----
-2--2--2----------2--2--2-----------2--2--2------------2--2--2-----

-2--2--2----------2--2--2-----------2--2--2-------------2--2--2----
-2--2--2----------2--2--2-----------2--2--2-------------2--2--2----

(C)
-2---------2---------2---------2---------2---------2---------2---------2-----
-2---3--3--2---3--3--2---3--3--2---3--3--2---3--3--2---3--3--2---3--3--2-----

-2---------2---------2---------2---------2---------2---------2---------2-----
-2---3--3--2---3--3--2---3--3--2---3--3--2---3--3--2---3--3--2---3--3--2-----

-2---------2---------2---------2---------2---------2---------2---------2-----
-2---3--3--2---3--3--2---3--3--2---3--3--2---3--3--2---3--3--2---3--3--2-----

-2---------2---------2---------2---------2---------2---------2---------2-----
-2---3--3--2---3--3--2---3--3--2---3--3--2---3--3--2---3--3--2---3--3--2-----

(D)

---7-----------7------7-------7----7------7--------7///////10------10------10----10---
---7-----------7------7-------7----7------7--------7///////10------10------10----10---
---5-----------5------5-------5----5------5--------5///////8-------8-------8-----8----

-----10-----------10-----(10)//----------------------------------------------------
-----10-----------10-----(10)///---------------------------------------------------
-----8------------8------(8)/////2--2--2-------2--2--2-------2--2--2-------2--2--2-
---------------------------------2--2--2-------2--2--2-------2--2--2-------2--2--2-

REPEAT PART (C)

(E)
---2--------------------------------------0---------2-----------------------0-----
---2--------------------------------------0---------2-----------------------------
---2--------------------------------------0---------2-----------------------------

-------------3--------3---------3---------3------3-----3---------------------------------
----1--------1--------1---------1---------1------1-----1----2----2---2---2---4---5----4-5
----2-------------------------------2-----------------------0----------------------------

------------------------------------------------3---------3----------3-------3---3---3---
---4-------4---------4---2---2---2--------------2---------2----------2-------2---4---2---
--------------------------------------3--------------3-----------------------------------

--2--2--2------2--2--2------2--2--2------2--2--2-----------------------------------------
--2--2--2------2--2--2------2--2--2------2--2--2-----------------------------------------

-(3)--3---------3------3----3------------------------------------------------------------
-(1)--1---------1------1----1----2----------2---2----4---5--5/7-----5----5---4--4--2--2--
---------2-----------------------0-------------------------------------------------------

------------3-----3------3----------3---3---3--------------------------------------------
------------2-----2------2----------2---4---2--------------------------------------------
---3------------------------3------------------------------------------------------------
----------------------------------------------2--2--2----2--2--2----2--2--2----2--2--2---
----------------------------------------------2--2--2----2--2--2----2--2--2----2--2--2---

------------------------------------10/12----------(12)---------10--12---12------12--12--
---2--2--2-------2--2--2-----------------------------------------------------------------
---2--2--2-------2--2--2-----------------------------------------------------------------

---13---12-13-12-10---------------10/12---------10---9------9---10--10/12------------10--

---------------------------------12---------------------------------------------------------10/12------------------10--12-----------12--12---13-12-13-12-10----(10)----10----10---

--10/12----10---9--9---9---9--10--9---9--9-10--12-10---9-10----10--12--12--12--12---------------------------------------------------------------------9------------------------------------------------------------------------------------------------------------------------------------------------------------------------------------------------------------------------------------------------------------------------------------------------------

------0----0----0----0----0----0----0----0----0----0----0-----0------
---12---12---12---12---13---13---13---12---12---10---10---10---------

------0----0----0----0----0----0----0----0-----------0----0----0-----
---10---10---10---10---12---12---10---9-----0--10--12--12---12-------

------0----0----0----0----0----0----0----0----0----0----0----0-------
---12---12---12---10---12---12---12---12---12---12---10---12---------

------0----0----0----0----0----0-------0--------0-------0-------0--------0-----0------
---15---15---15---13---13---12----10--------10------10-------12------10--------9------

THANKS
            
Submit corrections

comments powered by Disqus
↑ Back to top | System Of A Down Tabs for Psycho. Lyrics for acoustic guitar and electric guitar. Tablatures and chords are parodies/interpretations of the original songs. You may use it for private study, scholarship, research or language learning purposes only