>
 >
Toxicity

Toxicity Guitar Tabs

System Of A Down - Toxicity chords, tabs, tablatures, lyrics

Guitar lessons | Add/correct | Request | Top 50 tabs Artists:  A B C D E F G H I J K L M N O P Q R S T U V W X Y Z 0-9

Toxicity Guitar Tabs – System Of A Down

CD, Sheet music, Poster

Do you like Toxicity? Share with your friends now
TabsTabs v2Tabs v3
I am pretty sure this is how the song goes.  
Tuning, one step down, and drop D, [C,G,C,F,A,D.
Listen to the song for timing. 

Intro
Slightly palm muted------------------------------------------------------------------------------------------------------
D----------------------------------------------------------------------------------------------------------------------------
A----------------------------------------------------------------------------------------------------------------------------
F----------------------------------------------------------------------------------------------------------------------------
C-----------------7------------7------------7-----------7------------7------------7-----/-------------10-----------10---
G--------5-------------5--------------5-----------5----------5------------5-------------/------8-------------8-----------
C---------------------------------------------------------------------------------------------------------------------------
Slightly palm muted----------------------------------------------------------------------------------------------------
D---------------------------------------------------------------------------------------------------------------------------
A---------------------------------------------------------------------------------------------------------------------------
F---------------------------------------------------------------------------------------------------------------------------
C-----------10---------10------------10------------10--\-----------------7------------7--------7-8------8-7--------7
G-----8-----------8-----------8--------------8-----------\----------5-----------5-----------5----------5---------5-----
C--------------------------------------------------------------------------------------------------------------------------
Slightly palm muted-------------------------------------------------|
D---------------------------------------------------------------------------------------------------------------------------
A---------------------------------------------------------------------------------------------------------------------------
F---------------------------------------------------------------------------------------------------------------------------
C-----/----------10---------12--------12--10-------10--8-------8------------------------------------------------------
G-----/-----8----------8-----------8-------------8------------8----------------------------------------------------------
C--------------------------------------------------------------------------------------------------------------------------



Chorus part 1.
                 p.m.-------------|      
D----------------------------------------------------------------------------------------------------------------------------
A----------------------------------------------------------------------------------------------------------------------------
F----------------------------------------------------------------------------------------------------------------------------
C---0--------------------------------------------8------8--8--8---------7----------7---7---7órepeat 1 time.
G---0----------3--2---0---2----0--------------8------8--8--8---------7----------7---7---7----------------------------
C---0----------3--2---0---2----0--------------8------8--8--8---------7----------7---7---7-----------------------------

Chorus part 2
p.m.-----------------------------------------------------------------------------------------|
D--------------------------------------------------------------------------------------------------------------------------
A--------------------------------------------------------------------------------------------------------------------------
F---------------------------------------------------------------------------------------------------------------------------
C-----------------------------------------------------------------------------------------------8------8--8--8----7------
G------3--2--0--2--0--0---3--2--0--2--0--0--3--2--0--2--0--0--3--2--0--2--0--0------8------8--8--8----7-----
C------3--2--0--2--0--0---3--2--0--2--0--0--3--2--0--2--0--0--3--2--0--2--0--0------8------8--8--8----7----

D---------------------------------------------------------------------------------------------------------------------------
A---------------------------------------------------------------------------------------------------------------------------
F---------------------------------------------------------------------------------------------------------------------------
C--7--7--7------------repeat--chorus--part--1------one time.------------------------------------
G--7--7--7---------------------------------------------------------------------------------------------------------------
C--7--7--7----------------------------------------------------------------------------------------------------------------



verse
D----------------------------------------------------------------------------------------------------------------------------
A-------------10------------10-----------10------------10-----------10------------10----/----------13-----------13---
F-----7---------------7-------------7-------------7-------------7-------------7------------/---10-----------10----------
C---------------------------------------------------------------------------------------------------------------------------
G---------------------------------------------------------------------------------------------------------------------------
C---------------------------------------------------------------------------------------------------------------------------

D--------------------------------------------------------------------------------------------------------------------------
A------------------13-------------------13----------------13---------------13- -\-------10-----10-----------10--11
F--------10------------------10-----------------10---------------10-------------\--7---------7---------7-------------
C-------------------------------------------------------------------------------------------------------------------------
G------------------------------------------------------------------------------------------------------------------------
C-----------------------------------------------------------------------------------------------------------------------

D-----------------------------------------------------------------------------------------------------------------------
A-----------11--10--------------10--/----------------13------------------15----------------15--13---------------
F----7---------------------7----------/-------10---------------10-----------------10--------------------10--------
C----------------------------------------------------------------------------------------------------------------------
G---------------------------------------------------------------------------------------------------------------------
C---------------------------------------------------------------------------------------------------------------------

D--------------------------------------------------------------------------------------------------------------------
A------13---11-------------13-------------------------------------------------------------------------------------
F-------------------10---------------------------------------------------------------------------------------------
C-------------------------------------------------------------------------------------------------------------------
G-------------------------------------------------------------------------------------------------------------------
C-------------------------------------------------------------------------------------------------------------------

Bridge 
                                   Bend the 7 a half step   
D-------------------------------------------------------------------------------------------------------------------
A------------------------------------------------------------------------------------------------------------------
F------------------------------------------------------------------------------------------------------------------
C------------------------------------------------------------------------------------------------------------------
G------5--5-5--5---8---5-5----7-------------------------------------------------------------------------------
C-----------------------------------------------------------------------------------------------------------------

Pre outro

D--------------------------------------------------------------------------------------------------------------
A--------------------------------------------------------------------------------------------------------------
F--------------------------------------------------------------------------------------------------------------
C---- -0--0--0----------0--0---------------repeat  a  lot--------------------------------------------------
G-----0--0--0---3--2---0--0-------------------------------------------------------------------------------
C-----0--0--0ó3-h2--0--0--------------------------------------------------------------------------------
Outro
                                Bend the 2 a half step        
D------------------------------------------------------------------------------------------------------------
A-----------------------------------------------------------------------------------------------------------
F-----------------------------------------------------------------------------------------------------------
C----------------------------------------------------------------------------------------------------------
G-----0----------------------------------------------------------------------------------------------------
C-----0---0--0--0---3--0--0---2------------------------------------------------------------------------





Order:
Intro
Chorus
Verse 
Chorus
Verse
Chorus
Bridge
Pre outro 
Outro
Chorus 
Outro

Thatís it





Comments


Popular System Of A Down tabs & chords
Ego Brain 2 Bass Tabs
Science 2 Bass Tabs
Lonely Day 3 Chords
Chop Suey Drum Tabs
1chopsueyintro Tabs
ATWA 2 Tabs
Chop Suey 4 Tabs
Ddevil 1 Tabs
La Isla Bonita 1 Tabs
Sugar Tabs


Song lyrics



↑ Back to top | Tablatures and chords are parodies/interpretations of the original songs. You may use it for private study, scholarship, research or language learning purposes only
© 2014 AZChords.com Contact us | Privacy policy | DMCA | Add/correct tabs | Request tabs | Top 50 tabs