» » »

System Of A Down, Johnny Tabs (ver.1)

Artists:  A B C D E F G H I J K L M N O P Q R S T U V W X Y Z # 

Johnny Tabs (ver.1)

System Of A Down Tabs
 Rating:
4/5 (4 votes)
Johnny lessons Tabs too difficult? Try these video lessons and learn fast
                Tuning: Down 1 whole step, and then drop D to C
        Low to high (C,G,C,F,A,D)

It's not perfect, but I think it's close enough to play the song.
Comments...?
Thanks.

Intro:

1:|--7---------4--5---4---------|
2:|--6---3--5------------6--5---|
3:|--5--------------------------|
4:|-----------------------------|
5:|-----------------------------|
6:|-----------------------------|
pm.      .  .  .   

Verse:

1:|--7-x-x--7-x--8-x-10\-----7-x-x--7-x--8-x-10\---|
2:|--6-x-x--6-x--7-x--9\-----6-x-x--6-x--7-x--9\---|
3:|--5-x-x--5-x--6-x--8\-----5-x-x--5-x--6-x--8\---|
4:|------------------------------------------------|
5:|------------------------------------------------|
6:|------------------------------------------------|


1:|--4-x-x--4-x-5-x-7\------4-x-x--4-x-5-x-7\---|
2:|--3-x-x--3-x-4-x-6\------3-x-x--3-x-4-x-6\---|
3:|--2-x-x--2-x-3-x-5\------2-x-x--2-x-3-x-5\---|
4:|---------------------------------------------|
5:|---------------------------------------------|
6:|---------------------------------------------|

Chorus: w/slight palm mute 
(When the chorus comes two times you play it harder)

1:|-------------------------------|-------------------------------|
2:|-------------------------------|-------------------------------|
3:|-------------------------------|-------------------------------|
4:|--3--5--6--8--6---7---7--7--9--|--3--5--6--8--6---7---7--7--9--| 
5:|--3--5--6--8--6---7---7--7--9--|--3--5--6--8--6---7---7--7--9--|
6:|--3--5--6--8--6---7---7--7--9--|--3--5--6--8--6---7---7--7--9--|

1:|-------------------------------|-------------------------------|
2:|-------------------------------|-------------------------------|
3:|-------------------------------|-------------------------------|
4:|--3--3--5--6--3---6---6--6--2--|--3--3--5--6--3---6---6--6--2--|
5:|--3--3--5--6--3---6---6--6--2--|--3--3--5--6--3---6---6--6--2--|
6:|--3--3--5--6--3---6---6--6--2--|--3--3--5--6--3---6---6--6--2--|

Bridge:

1:|--7--7/8--8/10--8--7--12\7--|--7--7/8--8/10--8--7\5--|
2:|----------------------------|------------------------|
3:|----------------------------|------------------------|
4:|----------------------------|------------------------|
5:|----------------------------|------------------------|
6:|----------------------------|------------------------|

1:|--4--4/5--5/7---5--4---9\4--|--4--4/5--5/7---5--4--|
2:|----------------------------|----------------------|
3:|----------------------------|----------------------|
4:|----------------------------|----------------------|
5:|----------------------------|----------------------|
6:|----------------------------|----------------------|

Then: (Sweet Little Boy Johnny...)

1:|--7-----10\7------7-----10\7--|
2:|------------------------------|
3:|------------------------------|
4:|------------------------------|
5:|------------------------------|
6:|------------------------------|
            
Submit corrections

comments powered by Disqus
↑ Back to top | System Of A Down Tabs for Johnny. Lyrics for acoustic guitar and electric guitar. Tablatures and chords are parodies/interpretations of the original songs. You may use it for private study, scholarship, research or language learning purposes only