» » »

System Of A Down, I E A I A I O Bass tabs (ver.1)

Artists:  A B C D E F G H I J K L M N O P Q R S T U V W X Y Z # 

I E A I A I O Bass tabs (ver.1)

System Of A Down Tabs
 Rating:
4/5 (4 votes)
I E A I A I O lessons Tabs too difficult? Try these video lessons and learn fast
                "song - IEAIAIO
band - System of a Down

This IS the correct way.  I seen alot of people way off, and some who just didn't quite have it right.
So I decided to help you all as I was learning this one myself.  It's a great song.


~Intro – guitar only

      Bridge 
F ---------------------------------------------
C ---------------------------------------------
G ---------------------------------------------
C --1p0--0--0-0-1p0--0----1p0--0--0-0-1p0--0--- play twice
      
     
F -------------------------------------
C -------------------------------------
G -------------------------------------
C --1-0-0-0-0-0-0-0-1-0-0-0-0-(0-0-0)-- plat 4 times (don't play last time)  


     Verse 
F -------------------------------------------------------------------------
C -------------------------------------------------------------------------
G -------------------------------------------------------------------------
C --12-11--12-11--12-11--12-11--12-11--12-11---12-11---12-11---------------
            
F -------------------------------------------------------------------------
C -------------------------------------------------------------------------
G -------------------------------------------------------------------------
C --12-11--12-11--12-11--12-11--12-11--12-11---12-11---12-11---------------
-
F ---------------------------------------------
C ---------------------------------------------
G ---------------------------------------------
C --1p0--0--0-0-1p0--0----1p0--0--0-0-1p0--0---

F -------------------------------------------------------------------------
C -------------------------------------------------------------------------
G -------------------------------------------------------------------------
C --12-11--12-11--12-11--12-11--12-11--12-11---12-11---12-11---------------
            
F -------------------------------------------------------------------------
C -------------------------------------------------------------------------
G -------------------------------------------------------------------------
C --12-11--12-11--12-11--12-11--12-11--12-11---12-11---12-11---------------


F ---------------------------------------------
C ---------------------------------------------
G ---------------------------------------------
C --1p0--0--0-0-1p0--0----1p0--0--0-0-1p0--0---

F -------------------------------------------------------------------------
C -------------------------------------------------------------------------
G -------------------------------------------------------------------------
C --14-13--14-13--14-13--14-13--14-13--14-13--14-13--14-13-----------------
            
F -------------------------------------------------------------------------
C -------------------------------------------------------------------------
G -------------------------------------------------------------------------
C --14-13--14-13--14-13--14-13--14-13--14-13--14-13--14-13-----------------

F ---------------------------------------------
C ---------------------------------------------
G ---------------------------------------------
C --1p0--0--0-0-1p0--0----1p0--0--0-0-1p0--0---

F -------------------------------------------------------------------------
C -------------------------------------------------------------------------
G -------------------------------------------------------------------------
C --12-11--12-11--12-11--12-11--12-11--12-11---12-11---12-11---------------
            
F -------------------------------------------------------------------------
C -------------------------------------------------------------------------
G -------------------------------------------------------------------------
C --12-11--12-11--12-11--12-11--12-11--12-11---12-11---12-11---------------

F ---------------------------------------------
C ---------------------------------------------
G ---------------------------------------------
C --1p0--0--0-0-1p0--0----1p0--0--0-0-1p0--0---

     Chorus
F ------------------------------------------------------------
C ------------------------------------------------------------
G ------------------------------------------------------------
C ---0--0-0-0--3-2--2-2-0--0-0---5--5-5-5--3-3--2-2-0--0-0-0--  (X2)

F ---------------------------------------------
C ---------------------------------------------
G ---------------------------------------------
C --1p0--0--0-0-1p0--0----1p0--0--0-0-1p0--0---

after first verse he only plays two top chorus lines once.  every one after he plays the 
first two(above) then the second two(below)

F ----------------------------------------------
C ----------------------------------------------
G ----------------------------------------------
C --3--0-0-0-0-0-0-0-0--5--0-0-0-0-0-0-0--------(twice)

F ---------------------------------------------
C ---------------------------------------------
G ---------------------------------------------
C --1p0--0--0-0-1p0--0----1p0--0--0-0-1p0--0---


      Break
F -----------------------------------------------------------------------
C -----------------------------------------------------------------------
G -----------------------------------------------------------------------
C ---12---12-12-13-12-12-13--12-12----12---12-12-13-12-12-13--12-12------  

F -----------------------------------------------------------------------
C -----------------------------------------------------------------------
G -----------------------------------------------------------------------
C ---12---12-12-13-12-12-12--12-12----12---12-12-13-12-12-12--12-12------ 

play both lines abve twice, then go do the same for the bottom two

F ---------------------------------------------------------------------
C ---------------------------------------------------------------------
G ---------------------------------------------------------------------
C ---12---12-12-13-12--13--12------------12---12-12-13-12--13--12------ 

F ---------------------------------------------------------------------
C ---------------------------------------------------------------------
G ---------------------------------------------------------------------
C ---12---12-12-13-12--12--12------------12---12-12-13-12--12--12------  


~Bridge~

~Verse~

~Chorus~

~verse~

~Chorus~

~Break~
 
~chorus~

     And that's it as far as I can tell!
"            
Submit corrections

comments powered by Disqus
↑ Back to top | System Of A Down Bass for I E A I A I O. Lyrics for acoustic guitar and electric guitar. Tablatures and chords are parodies/interpretations of the original songs. You may use it for private study, scholarship, research or language learning purposes only