» » »

System Of A Down, Cubert Bass tabs (ver.1)

Artists:  A B C D E F G H I J K L M N O P Q R S T U V W X Y Z # 

Cubert Bass tabs (ver.1)

System Of A Down Tabs
 Rating:
4/5 (4 votes)
Cubert lessons Tabs too difficult? Try these video lessons and learn fast
                

This song was tabbed pretty close. The verse and chorus are
the only thing i fixed. I am 100% sure this is right!

SOAD tuning (C, G, C, F)

Intro
F|--------------------
C|--------------------
G|--------------------
C|-5-5-5-5-5-5-5-5-5--

Verse
F|---------|----------
C|---------|---------- X4
G|---------|----------
C|-8-4-6-3-|-55555555-

Chorus
F|--------------------------------
C|--------------------------------
G|----5----------5----------------
C|--5---7-8-5------8-11-7-10-6----

Bridge
F|--------------------------------
C|--------------------------------
G|--------------------------------
C|-4-4-4-4-4-4-4--5-5-5-5-5-5-5-5-
            
Submit corrections

comments powered by Disqus
↑ Back to top | System Of A Down Bass for Cubert. Lyrics for acoustic guitar and electric guitar. Tablatures and chords are parodies/interpretations of the original songs. You may use it for private study, scholarship, research or language learning purposes only