» » »

System Of A Down, Chic 'n' Stu Tabs (ver.2)

Artists:  A B C D E F G H I J K L M N O P Q R S T U V W X Y Z # 

Chic 'n' Stu Tabs (ver.2)

System Of A Down Tabs
 Rating:
4/5 (4 votes)
Chic 'n' Stu lessons Tabs too difficult? Try these video lessons and learn fast
                
Tuning: Drop D, Down 1 Step (C,G,C,F,A,D)

INTRO:
|-9-9-9-9-9-9-9-9-|
|-8-8-8-8-8-8-8-8-|
|-----------------|
|-----------------|
|-----------------|
|-----------------|

CHORUS:
|---------------------------------------------|
|---------------------------------------------|
|---------------------------------------------|
|---------------------------------------------|
|-11-12-11-0-11-12-11-0-11-12-11-0-11-12-11-0-|
|-11-12-11-0-11-12-11-0-11-12-11-0-11-12-11-0-|
pm           .. .. .. .            .. .. .. .

VERSE:
|-------------------------------------------|
|-------------------------------------------|
|-------------------------------------------|
|----11-12-14-12-11-12-14-12-11-12-14-12-11-|
|-11----------------------------------------|
|-11----------------------------------------|
pm   .. .. .. .. .. .. .. .. .. .. .. .. ..

BRIDGE: (palm mute)
|-----------------------------------------|
|-----------------------------------------|
|-----------------------------------------|
|-11--11-12-11--11-12-11--11-0-11-0-11-12-|
|-11--11-12-11--11-12-11--11-0-11-0-11-12-|
|-11--11-12-11--11-12-11--11-0-11-0-11-12-|

BRIDGE 2:
|------------------------------|
|------------------------------|
|------------------------------|
|-11--0-11--0-11--0-11-0-11-12-|
|-11--0-11--0-11--0-11-0-11-12-|
|-11--0-11--0-11--0-11-0-11-12-|

FILL:
|----|
|----|
|----|
|-11-|
|-11-|
|-11-|

FILL 2:
|-9-9-9-9-9-9-9-9-9-9-9-9-9-9-9-9--|
|-8-8-8-8-8-8-8-8--8-8-8-8-8-8-8-8-|
|----------------------------------|
|----------------------------------|
|----------------------------------|
|----------------------------------|

INTERLUDE:
|--------------------------------------------------|
|-------15-----------------------------------------|
|----12--------------------------------------------|
|--------------------------------------------------|
|----------11--11-12-11--11-12-11--11-0-11-0-11-12-|
|-13-------11--11-12-11--11-12-11--11-0-11-0-11-12-|

INTERLUDE 2:
|---------------------------------------------------------|
|-------15-----------15--------13---------------15--------|
|----12-----------12--------10---------------12-----------|
|---------------------------------------------------------|
|---------------------------------------------------------|
|-13-------17\-13--------11--------11-11--13--------13-13-|

|----------------------------------|
|-------13---------------15--15-15-|
|----10---------------12-----12-12-|
|----------------------------------|
|----------------------------------|
|-11--------11-11--13--------------|
            
Submit corrections

comments powered by Disqus
↑ Back to top | System Of A Down Tabs for Chic 'n' Stu. Lyrics for acoustic guitar and electric guitar. Tablatures and chords are parodies/interpretations of the original songs. You may use it for private study, scholarship, research or language learning purposes only