» » »

Bounce Tabs (ver.1)

Artists:  A B C D E F G H I J K L M N O P Q R S T U V W X Y Z # 

Bounce Tabs (ver.1)

System Of A Down
Rating:
0/5 (0 votes)
Tabs too difficult? Try these video lessons and learn fast.
                PROPS GO TO: B.Chamberlain

Tuning: Drop D(low to high:CGCFAD)

Intro/Chorus:(play 8 times at fast speed)

      P.M......................
|------------------------------|
|------------------------------|
|------------------------------|
|------------------------------|
|-8--7-7-8-8-7-7-8-8-7-7-8-8--0|
|-8--7-7-8-8-7-7-8-8-7-7-8-8--0|

1st Verse Riff
     
      P.M............................................   
|-------------------------|-------------------------|
|-------------------------|-------------------------|
|-------------------------|-------------------------|
|---7-8---7-8---7-8---7-8-|---6-7---6-7---6-7---6-7-|
|-5-----5-----5-----5-----|-4-----4-----4-----4-----|
|-------------------------|-------------------------|

Verse Riff:
      
      P.M..........................................
|-------------------------------------------------|Other part of riff is below
|-------------------------------------------------|
|-------------------------------------------------|
|-----9--10-------9--10-------9--10-------9--10---|
|-7-----------7-----------7-----------7-----------|
|-------------------------------------------------|

|------------------------------------------------|
|------------------------------------------------|
|------------------------------------------------|
|-----9--8--------9--8--------9--8--------9--8---|
|-6-----------6-----------6-----------6----------|
|------------------------------------------------|

Bridge Riff #1:

      P.M................................................
|-------------------------------------------------------|Other bridge part below.
|-------------------------------------------------------|
|-------10-----------10-----------10-----------10-------|
|-8------------8------------8------------8--------------|
|-------------------------------------------------------|
|-------------------------------------------------------|

|-------------------------------------------------------|
|-------------------------------------------------------|
|------9-------------9-------------9------------9-------|
|-8------------8------------8------------8--------------|
|-------------------------------------------------------|
|-------------------------------------------------------|

Bridge #2:    Bridge Riff 3

      P.M..........................................
|------------|-----------------|------------------|
|------------|-X-X-------------|-X-X--------------|
|------------|-X-X-10----------|-X-X-9------------|
|------------|-X-X-8-----------|-X-X-8------------|
|-8-8-0------|-----------------|------------------|
|-8-8-0------|-----------------|------------------|
            
Tabs too difficult? Try these video lessons and learn fast.


comments powered by Disqus
↑ Back to top | Tablatures and chords are parodies/interpretations of the original songs. You may use it for private study, scholarship, research or language learning purposes only