» » »

Suede, Animal Nitrate Tabs (ver.2)

Artists:  A B C D E F G H I J K L M N O P Q R S T U V W X Y Z # 

Animal Nitrate Tabs (ver.2)

Suede Tabs
 Rating:
4/5 (4 votes)
Animal Nitrate lessons Tabs too difficult? Try these video lessons and learn fast
                
This is a transcription of suede's Animal Nitrate. I have tried to include
most of the 
important guitar parts but I can't get all of the solo.
Do not hesitate to mail me corrections or suggestions either.
Have Fun.

If you have an effects set-up; use Overdrive and Flanger/Phaser at the intro,
A crunch OD for the verses, fuzz distortion for the chorus, and fuzz with
Flanger/Phaser
For the pre-solo.

KEY
	/   -  slide up
	\   -  slide down
	po  -  pull-off
	h   -  hammer-on
	b2  -  bend up two frets
	b1  -  bend up one fret
	.   -  means no notes played on this string (saves me doing this
--------------)
	~~  -  vibrato
INTRO

Bm			A			G			E	]
										} x2
Bm			A			G			A	]

Where G is written above, another guitar plays this on the bottom E string

E---3--2--3--0----------        the 1st and 3rd time G is played

E---3--2--3--2--3--2--3--5--    the 2nd and 4th times g is played

The lead line over the intro is

 Bm			A			G			E
eb------------------------------------------------------------------------3/
5-po3-po2-po0-----
Bb--------------------------------------------------------------------------
------------------
Gb--------------------------------------------------------------------------
------------------
.
.
.

 Bm			A			G			A
eb-2------------------------------------------------------------------------
-------------------
Bb-------3---------------3----2---3----2---------0---2---0-------0------/7-\
5-po3-po2-po0-----
Gb-----------------------------------------------------------2--------------
------------------
.
.
.

 Bm			A			G			E
eb------------------------------------------------------------------------3/
5-po3-po2-po0-----
Bb--------------------------------------------------------------------------
------------------
Gb--------------------------------------------------------------------------
------------------
.
.
.

 Bm			A			G			A
eb-2------------------------------------------------------------------------
-------------------
Bb-------3---------------3----2---3----2---------0---2---0-------0-let ring
|--
Gb-----------------------------------------------------------2--------------
------------------
.
.
.

VERSE - where chords are shown it is just to show the notes (i.e. the chord
is not repeated to
	rythym)

eb------2------5--------------------------------------2------5--------------
------------------
Bb------3------5--------------------------------------3------5--------------
------------------
Gb------4------2--------------------------------------4------2--------------
------------------
Db------4------2--------------0-2po0----0-2po0--------4------2--------------
---0--2po0--------
Ab---2--2---0--0--------------------2---------2----2--2---0--0--------------
0h2--------2------
Eb-----------------3--2--3--0------------------------------------3--2--3--0-
------------------


eb------2------5--------------------------------------2------5--------------
------------------
Bb------3------5--------------------------------------3------5--------------
------------------
Gb------4------2--------------------------------------4------2--------------
------------------
Db------4------2--------------0-2po0----0-2po0--------4------2--------------
-----------0------
Ab---2--2---0--0--------------------2---------2----2--2---0--0--------------
-------0h2--------
Eb-----------------3--2--3--0------------------------------------3--2--3--2-
-3--2-------------


CHORUS

eb-----------3---------------------3--------------------------------------
Bb---------------------------------------------3--3--5--5--5(b2)--5po3----
Gb--2--3--4-----4--3--2---2--3--4-----4----2h4-------------------------4--
.
.
.

eb----------------------------------------3---------------------3--------10-
--------1--0-------
Bb------3--3------3--3--5po3------------------------------------------/7----
-2-2-2--1--1-------
Gb--2h4-------2h4------------4---2--3--4-----4--3--2---2--3--4-----4--------
-2-2-2--2--0-------
Db--------------------------------------------------------------------------
-2-2-2--3--2-------
Ab--------------------------------------------------------------------------
-0-0-0-----3------


PRE-SOLO - play twice

eb--------2-2po0--------3-3po2--------4-4po3-------3-3po2-
.
Gb--2h3h4---------2h3h4--------2h3h4---------2h3h4--------
.
.
.


After the solo the chorus repeats with LOTS of layered guitar tracks ad
libbing on top.

If you have any comments or corrections don't forget to mail me at the above
address.


Love & Poison,
                        Douglas
            
Submit corrections

comments powered by Disqus
↑ Back to top | Suede Tabs for Animal Nitrate. Lyrics for acoustic guitar and electric guitar. Tablatures and chords are parodies/interpretations of the original songs. You may use it for private study, scholarship, research or language learning purposes only