» » »

Suede, Trash Bass tabs (ver.1)

Artists:  A B C D E F G H I J K L M N O P Q R S T U V W X Y Z # 

Trash Bass tabs (ver.1)

Suede Tabs
 Rating:
4/5 (4 votes)
Trash lessons Tabs too difficult? Try these video lessons and learn fast
                On: 05-04-02

Any corrections, let me know pls. This is my first tab, looked desperately
for some Suede tabs, but found none so I tried to tab as best I could.

Tuning: D-A-D-G

 ( )= Ghost Note
  h = hammer on
  / = slide up
  \ = slide down
  x = play 'note' with heavy damping (dead note for timing)
  ~ = Let note ring

Intro/Verse
G:-------------------------|-------------------------|
D:-------------------------|-------------------------|
A:--2---2-2---2-2---2-2---2|-------------------------|
D:-------------------------|--1---1-1---1-1---1-1---1|


G:-------------------------|-------------------------|
D:-------------------------|-------------------------|
A:-------------------------|--4---4-4~---------------|
D:--2---2-2---2-2---2-2---2|------------4-4---4-4-4-4|  


Chorus
G:-------------------------|-------------------------|
D:-------------------------|-------------------------|
A:-2-2---2-2---2-2--2------|-------------------------|
D:------4---6-4----4-1-2-3-|-4-4-2-4-4--2-4-4--24346-|

                                         these are 10's
G:-------------------------|-----------------------------------|
D:-------------------------|5-4-2--4-2------/12-12-12----------|
A:-7-7---7-7-----7-7---7--5|--------------------------10-10-10\|
D:------9---11-9-----9--57-|-----------------------------------|


Chorus Ending
G:-------------------------|-------------------------|
D:-------------------------|-------------------------|
A:-2-2---2-2---2-2--2------|-------------------------|
D:------4---6-4----4-1-2-3-|-4-4-2-4-4--2-4-4--24346-|

                                         
G:-------------------------|-------------------------|
D:-------------------------|--5~----------5-5-5-5-5-5|
A:-7-7---7-7-----7-7---7--5|-------------------------|
D:------9---11-9-----9--57-|-------------------------|


Bridge
G:-------------------------|-------------------------|
D:-------------------------|-------------------------|
A:--2---2-2---2-2---2-2---2|-------------------------|
D:-------------------------|--1---1-1---1-1---1-1---1|


G:-------------------------|-------------------------|
D:-------------------------|-------------------------|
A:-------------------------|--4---4-4~---------------|
D:--2---2-2---2-2---2-2---2|------------4-4---4-4-4-4|


Fade Out
G:-------------------------|------------------------------------|
D:-------------------------|5-5-7-7-9-9-11-9--/12-12-12---------|
A:-7-7---7-7-----7-7---7--5|---------------------------10-10-10\|
D:------9---11-9-----9--57-|------------------------------------|



Intro/Verse   x 6
Chorus        x 1
Chorus Ending x 1
Intro/Verse   x 4
Chorus        x 1
Chorus Ending x 1
Bridge        x 2
Chorus        x 3
Fade Out      x 1
            
Submit corrections

comments powered by Disqus
↑ Back to top | Suede Bass for Trash. Lyrics for acoustic guitar and electric guitar. Tablatures and chords are parodies/interpretations of the original songs. You may use it for private study, scholarship, research or language learning purposes only