>
 >
Animal Nitrate

Animal Nitrate Guitar Tabs

Suede - Animal Nitrate chords, tabs, tablatures, lyrics

Guitar lessons | Add/correct | Request | Top 50 tabs Artists:  A B C D E F G H I J K L M N O P Q R S T U V W X Y Z 0-9

Animal Nitrate Guitar Tabs – Suede

CD, Sheet music, Poster

Do you like Animal Nitrate? Share with your friends now
ChordsChords v2TabsTabs v2Ukulele
Tuning: Standard

  
E||-------------------|-------------------2-2-|--2-----2------0-----0------|
B||-------------------|-------------------2-2-|--2--3--2------2--3--2--x-x-|
G||-------------------|-------------------4-4-|--4--4--4--x-x-2--2--2--x-x-|
D||-------------------|-------------------4-4-|--4--4--4--x-x-2--2--2--x-x-|
A||-------------------|-------------------2-2-|--2--2--2--x-x-0--0--0------|
E||-------------------|-------------------2-2-|--2--2--2--x-x--------------|
  
|--------x------------------|--2----------0--0--0------|
|--2--3--x--------3-5-3-0---|--3----3-----2--3--2--x-x-|
|--0--0--x--0---------------|-------------2--2--2--x-x-|
|--0--0--x--2---------------|-------------2--2--2--x-x-|
|--0--0-----2---------------|----------0--0--0--0------|
|--3--3-----0---------------|--------------------------|
  
|--------------------------|--2--2--2------0--0--0------|
|--2--0--------------------|--2--3--2------2--3--2--x-x-|
|--------2--0--------------|--4--4--4------2--2--2--x-x-|
|--------------4--2--0-----|--4--4--4------2--2--2--x-x-|
|-----------------------0--|--2--2--2--x-x-0--0--0------|
|--------------------------|--2--2--2--x-x--------------|

|--------0--0----------------|--2----2-----0--0--0-----|--------------0----0----|
|--2--3--0--0-----3-5-3p-0---|--3----3-----2--3--2-----|--2--0-----0--0----0----|
|--0--0--0--0----------------|-------------2--2--2--0--|--------2-----4----4----|
|--0--0--0--2----------------|-------------2--2--2-----|------------------------|
|--0--0-----2----------------|----------0--0--0--0-----|------------------------|
|--3--3-----0----------------|-------------------------|------------------------|


1st Verse                                                  
|------------2---------5----|-----------------------------|
|------------3---------5----|-----------------------------|
|---------------------------|-----------------------------|
|---------------------------|------------------0-----0-0--|
|--2--------------0---------|-----------0--0-2---0-2---0--|
|---------------------------|--3--2--3--------------------|

|-------2---------5----|----------------------------|-------2---------5----|
|-------3---------5----|----------------------------|-------3---------5----|
|----------------------|-----------------------0-0--|--4-------------------|
|--4-------------------|------------------0--2-0-0--|--4-------------------|
|--2---------0---------|-----------0--0-2--------0--|--2---------0---------|
|----------------------|--3--2--3-------------------|----------------------|
    
|------------------------------|-------2---------5----|---------------------------|
|------------------------------|-------3---------5----|---------------------------|
|------------------------------|-------2--------------|---------------------------|
|------------------0-----0-----|--4-------------------|------------------------0--|
|-----------0--0-2---0-2---0-2-|--2---------0---------|--------------------0-2-0--|
|--3--2--3---------------------|----------------------|--3--2--3--2--3--2---------|


First Chorus                            
|--------------------------------------|
|-----------------------------8--------|
|--------------------------------------|
|--7---------------7--8--8-9-----9--8--|
|--------------------------------------|
|--------------------------------------|

|---------------------------|-------------------------------|
|-----7-------------8--8----|-------------------------------|
|---------------------------|-------7--9--9br------7--------|
|--7-----7--8--8-9-----9----|--7h-9-------------------9--7--|
|---------------------------|-------------------------------|
|---------------------------|-------------------------------|
 
|------------------------------------|----------------------------|
|------------------------------------|-----7-------------8--------|
|-------7---7--------7---7---9p-7----|----------------------------|
|--7h-9---------7h-9--------------9--|--7-----7--8--8-9-----9--8--|
|------------------------------------|----------------------------|
|------------------------------------|----------------------------|

|---------------------------|-------------------------1--|---------------------|
|-----7-------------8--8----|--12----15----10--10-----1--|---------------------|
|----------------------7----|--11-----------9---9--9--2--|-----5---------------|
|--7-----7--8--8-9-----9----|--12----------11--11-----3--|-----5---------------|
|---------------------------|-------------------------3--|-----3---------------|
|---------------------------|-------------------------1--|---------------------|


2nd Verse                                                    
|------------2---------5----|-------------------------------|
|------------3---------5----|-------------------------------|
|------------2--------------|-------------------------------|
|--4------------------------|-------------------0------0-0--|
|--2--------------0---------|-----------0--0h-2-0-0h-2-0-0--|
|---------------------------|--3--2--3----------------------|
     
|-------2---------5----|------------------------------|-------2---------5----|
|-------3---------5----|------------------------------|-------3---------5----|
|-------2--------------|-------------------------0----|----------------------|
|--4-------------------|-------------------0--2p-0----|--4-------------------|
|--2---------0---------|--------------0h-2---------0--|--2---------0---------|
|----------------------|--3--2--3--0------------------|----------------------|
     
|------------------------------|-------2---------5----|---------------------------|
|------------------------------|-------3---------5----|---------------------------|
|------------------------------|-------2--------------|---------------------------|
|------------------0-----0-----|--4-------------------|------------------------0--|
|-----------0--0-2---0-2---0-2-|--2---------0---------|--------------------0-2-0--|
|--3--2--3---------------------|----------------------|--3--2--3--2--3--2---------|


Second Chorus                            
|--------------------------------------|
|-----------------------------8--------|
|--------------------------------------|
|--7---------------7--8--8-9-----9--8--|
|--------------------------------------|
|--------------------------------------|

|---------------------------|-------------------------------|
|-----7-------------8--8----|-------------------------------|
|---------------------------|-------7--9--9br------7--------|
|--7-----7--8--8-9-----9----|--7h-9-------------------9--7--|
|---------------------------|-------------------------------|
|---------------------------|-------------------------------|
   
|------------------------------------|----------------------------|
|------------------------------------|-----7-------------8--------|
|-------7---7--------7---7---9p-7----|----------------------------|
|--7h-9---------7h-9--------------9--|--7-----7--8--8-9-----9--8--|
|------------------------------------|----------------------------|
|------------------------------------|----------------------------|
           
|---------------------------|-------------------------1--|---------------------|
|-----7-------------8--8----|--12----15----10--10-----1--|-----5--5------------|
|----------------------7----|--11-----------9---9--9--2--|-----5--5------------|
|--7-----7--8--8-9-----9----|--12----------11--11-----3--|-----5--5------------|
|---------------------------|-------------------------3--|-----3--3------------|
|---------------------------|-------------------------1--|---------------------|


Solo                                     
|--------------------------|-----2--2-0--------3--3-0-----|
|--------------------------|------------------------------|
|-------------------2----3-|--4---------2-3-4---------2-3-|
|--------------------------|------------------------------|
|--------------------------|------------------------------|
|--------------------------|------------------------------|
  
|-----4--4-0--------3--3-0-----|-----2--2-0--------3--3-0-----|
|------------------------------|------------------------------|
|--4---------2-3-4---------2-3-|--4---------2-3-4---------2-3-|
|------------------------------|------------------------------|
|------------------------------|------------------------------|
|------------------------------|------------------------------|
   
|-----4--4-0----------------|
|---------------------------|
|--4---------2-3-4--7---6---|
|---------------------------|
|---------------------------|
|---------------------------|
 
|--------------------------------|----------------------------|
|--------------------------------|--------------------7---8---|
|--6-7-6-----6-------------------|--------6--7--6-7-9---------|
|--------9-----9-7------------7--|--7--9----------------------|
|---------------------9-7-7-9----|----------------------------|
|--------------------------------|----------------------------|
   
|-----------------------------|----------------------------|----------0-----9-------------|
|--8-7------------------------|-----9---------9---------9--|------10-----------10--10~----|
|------7-9---7-6--6--7--6-----|--------8---------8---------|---9---------9----------9~----|
|--------------------------7--|--9--------10--------10-----|--11--------------------------|
|-----------------------------|----------------------------|------------------------------|
|-----------------------------|----------------------------|------------------------------|


Last Chorus                            
|-------------------------------------|
|--------------7-------------8--------|
|-------------------------------------|
|--7--------------7--8--8-9-----9--8--|
|-------------------------------------|
|-------------------------------------|
  
|---------------------------|------------------------------|
|-----7-------------8-------|------------------------------|
|----------------------7----|------7--9--9br------7--------|
|--7-----7--8--8-9----------|--7-9-------------------9--7--|
|---------------------------|------------------------------|
|---------------------------|------------------------------|
   
|---------------------------------|----------------------------|
|---------------------------------|-----7-------------8--------|
|------7---7-------7---7---9-7----|----------------------------|
|--7-9---------7-9-------------9--|--7-----7--8--8-9-----9--8--|
|---------------------------------|----------------------------|
|---------------------------------|----------------------------|
     
|---------------------------|----------------------------|
|-----7-------------8-------|--12----15----10--10--10----|
|----------------------7----|--11-----------9---9---9----|
|--7-----7--8--8-9-----9----|--------------11------------|
|---------------------------|----------------------------|
|---------------------------|----------------------------|
   
|--10--10--10--10--10--12--12----|-------------------------|
|--12--12--12--12--12--14--14----|--7----7--7--8--7--------|
|--12--12--12--12--12--14--14----|-------------------9--7--|
|---0---0---0---0---0---0---0----|-------------------------|
|--------------------------------|-------------------------|
|--------------------------------|-------------------------|
   
|------------------------------|---------------------------|
|-----10-----------------------|-----10--7--7--8--7--------|
|-(7)-----------------7--9--7--|-(7)-----------------9--7--|
|----------7---7---9-----------|---------------------------|
|------------------------------|---------------------------|
|------------------------------|---------------------------|
   
|-------------------------------|-------------------------|
|-------------------------------|--7----7--7--8--7--------|
|------7---7------7---7--9-7----|-------------------9--7--|
|--7-9--------7-9------------9--|-------------------------|
|-------------------------------|-------------------------|
|-------------------------------|-------------------------|
   
|-------------------------------|---------------------------|
|-----10------------------------|-----10--7--7--8--7--------|
|-(7)------------------7--9--7--|-(7)-----------------9--7--|
|----------7---7---7-9----------|---------------------------|
|-------------------------------|---------------------------|
|-------------------------------|---------------------------|
   
|-------------------------------|-------------------------|
|-------------------------------|--7----7--7--8--7--------|
|------7---7------7---7--9-7----|-------------------9--7--|
|--7-9--------7-9------------9--|-------------------------|
|-------------------------------|-------------------------|
|-------------------------------|-------------------------|
   
|-------------------------------|---------------------------|
|-----10------------------------|-----10--7--7--8--7--------|
|-(7)------------------7--9--7--|-(7)-----------------9--7--|
|----------7---7---7-9----------|---------------------------|
|-------------------------------|---------------------------|
|-------------------------------|---------------------------|
   
|-------------------------------|--------------------------|
|-------------------------------|--7----7--7--8--7--8--10--|
|------7---7------7---7--9-7----|--------------------------|
|--7-9--------7-9------------9--|--------------------------|
|-------------------------------|--------------------------|
|-------------------------------|--------------------------|
   
|-----10-----12-----10---------|
|-(10)---------------------12--|
|------------------------------|
|------------------------------|
|------------------------------|
|------------------------------|
   
|-------12b-----12b--12b--12br-----10-----10------|
|-(12)--------------------------------12------12--|
|-------------------------------------------------|
|-------------------------------------------------|
|-------------------------------------------------|
|-------------------------------------------------|
   
|------------10--12-10-------10----------|-------------------------|
|-(12)-10-12--------------12----12-10----|--7----7--7--8--7--------|
|----------------------------------------|-------------------9-----|
|----------------------------------------|-------------------------|
|----------------------------------------|-------------------------|
|----------------------------------------|-------------------------|
  
|--------------------------|---------------------------------|
|--7--8--7-----------------|---------------------------------|
|-----------------7--------|------7-----------7----7-----7---|
|-----------9-----------7--|--7-9---7-9---7-9----9---7-9---7-|
|--------------------------|---------------------------------|
|--------------------------|---------------------------------|
   
|----------------------------------|-------------------------|
|----------------------------------|--7----7----8--7--8--10--|
|----7-----7-----7-----------------|--7----7-----------------|
|--9---7-9-----9---9-7---------7---|--7----7-----------------|
|----------------------9-7-7-9-----|-------------------------|
|----------------------------------|-------------------------|
   
|------10----12-----10---------|-------------------------------|
|-(10)---------------------12--|-(12)-12-10----7--7------------|
|------------------------------|-----------------------9----7--|
|------------------------------|-------------------------------|
|------------------------------|-------------------------------|
|------------------------------|-------------------------------|
                  
|-------------------------------|-------------------||
|-------------------------------|-------------------||
|--7--9b--11--11--11-9-7-----7--|--7~~~-------------||
|-------------------------9-----|-------------------||
|-------------------------------|-------------------||
|-------------------------------|-------------------||





Comments


Popular Suede tabs & chords
Everything Will Flow Bass Tabs
Beautiful Loser Chords
It Starts And Ends With You Chords
Untitled Chords
This World Needs A Father Tabs
Bentswood Boys Ukulele
Daddys Speeding Ukulele
Down Ukulele
Lazy Ukulele
Morning Ukulele


Song lyrics



↑ Back to top | Tablatures and chords are parodies/interpretations of the original songs. You may use it for private study, scholarship, research or language learning purposes only
© 2014 AZChords.com Contact us | Privacy policy | DMCA | Add/correct tabs | Request tabs | Top 50 tabs