» » »

Suede, The Living Dead Tabs (ver.1)

Artists:  A B C D E F G H I J K L M N O P Q R S T U V W X Y Z # 

The Living Dead Tabs (ver.1)

Suede Tabs
 Rating:
4/5 (4 votes)
The Living Dead lessons Tabs too difficult? Try these video lessons and learn fast
                "THE LIVING DEAD"

					     -SUEDE

This is for all my Wild Ones friends. Enjoy.
Special thanks to Leaves.
Play Part B the 1st and 3rd times. Play Part C the 2nd time.  Play Part D
the 4th time and then go into Part E.

Part A
e-----------3--------------------3--1--0--1-1h3--------------|
B-----------------1------------------------------0-----------|
G--------0--------------0------------------------------------|
D-----2--------2-----2--------2------------------------------|
A--3-----------------------3---------------------------------|
E------------------------------------------------------------|

Part B
e-----------0------------------------------------------------|
B--------1--------1-------------1-----0-----0h1--------------|
G-----2-----------------0h2--------2-----0-------0-----------|
D--3-----------3-----3---------------------------------------|
A----------------------------0--------3----------------------|
E------------------------------------------------------------|

Part C
e-----------0------------------------------------------------|
B--------1--------1-------------1-----0--1--1h3--1-----------|
G-----2-----------------0h2--------2--0--0-------------------|
D--3-----------3-----3---------------------------------------|
A----------------------------0-------------------------------|
E-------------------------------------3----------------------|

Part D
e-----------1--------1s5------3------------|
B--------1-----1-----1s5-5s3--3--3---------|
G-----2-----------2--2--------0------------|
D--3---------------------------------------|
A--------------------0-0-------------------|
E------------------------------------------|

Part E
e--------1-----------1-----------3-----------0----------------|
B--------1-----------3-----------0-----------0-----------1----|
G-----2-----2-----2-----2-----0-----0-----1-----1-----2-----2-|
D--3-----------0-----------0-----------2-----------2----------|
A--------------------------2-----------2-----------0----------|
E--------------------------3-----------0----------------------|

Part E cont.
e--0-----------------0---------------------|
B-----3--1--------1--------1---------------|
G--------------2-----------------0---------|
D-----------3-----------3-----3------------|
A------------------------------------------|
E--3--------1------------------------------|

Part F
   C                    G     Am     G (Repeat these chords)

If I was the wife of an acrobat...

Bb       F      C     Am       Bb     F     G

Could of had it all...Could of had it all...



	Nick
            
Submit corrections

comments powered by Disqus
↑ Back to top | Suede Tabs for The Living Dead. Lyrics for acoustic guitar and electric guitar. Tablatures and chords are parodies/interpretations of the original songs. You may use it for private study, scholarship, research or language learning purposes only