>
 >
Date Rape 3

Date Rape 3 Bass Tabs

Sublime - Date Rape 3 chords, tabs, tablatures, lyrics

Guitar lessons | Add/correct | Request | Top 50 tabs Artists:  A B C D E F G H I J K L M N O P Q R S T U V W X Y Z 0-9

Date Rape 3 Bass Tabs – Sublime

CD, Sheet music, Poster

Do you like Date Rape 3? Share with your friends now
Bass TabsBass Tabs v2Bass Tabs v3Bass Tabs v4Bass Tabs v5ChordsTabsTabs v2Tabs v3Tabs v4Ukulele
I can't find a good tab for this at all! So here it is. I know how 
Frustrating it is to not be able to find a tab for a song like this.


                      
G[-----------------------------------------02320--2-2-2-3-3-3-2---------]
D[-2-2-2-3-3-3-2--21-0-----2-2-2-3-3-3-2--2-----------------------------]
A[--------------------30------------------------------------------------]
E[----------------------3-----------------------------------------------]

G[-----------------------------------------------------]
D[-2-2-2-3-3-3-2---------------------------------------]
A[-------------------------10---10----10---9--9--8--8--]
E[----------------------------10----10-------9-----8---]

G[----------------------------------------------------------------------]
D[---7h99-----7h99-----7h99-----7h99-------0h22----0h22---2h44----------]
A[-7-----10--7----10--7----10--7----10----0----3--0----3-2----5-3-3-2-2-]
E[----------------------------------------------------------------------]

G[----------------------------------------------------------------------]
D[---7h99-----7h99-----7h99-----7h99-------0h22----0h22---2h44----------]
A[-7-----10--7----10--7----10--7----10----0----3--0----3-2----5-3-3-2-2-]
E[----------------------------------------------------------------------]

G[----------------------------------------------------------------------]
D[---7h99-----7h99-----7h99-----7h99-------0h22----0h22---2h44----------]
A[-7-----10--7----10--7----10--7----10----0----3--0----3-2----5-3-3-2-2-]
E[----------------------------------------------------------------------]

G[-----------------------------------------------------]
D[---7h99-----7h99-----7h99-----7h99-----0h22----0h22--]
A[-7-----10--7----10--7----10--7----10--0----3--0----3-]
E[-----------------------------------------------------]

G[-----------------------------------------------------------------------]
D[-----------------------------------------------------------------------]
A[-3-3-2-2-7-777777-3-3-2-2-----------7-7--7-7--7-7--7-7--7-7--7-7--7-7--]
E[--------------------------0-000000-----7----7----7----7----7----7----7-]

G[-------------------------------------------------------------------]
D[-------------------------------------------------------------------]
A[-------------------10-101010101010-----------------7-7-7-7-7-7-7-7-]
E[-7-777777-8-888888-----------------10-101010101010-----------------]

G[----------------------------------------------------------------------]
D[-----------------------------------------------------------------7788-]
A[-7--------7--------7--------7--------------------------------7799-----]
E[---778855---778855---778855---778855--7777777777777777-777777---------]

G[--------------------------------------------------------------------]
D[-9999999999999------------------7h99-----7h99------7h99------7h99---]
A[------------------------------7-----10--7----10--7-----10--7-----10-]
E[--------------------------------------------------------------------]

G[-------------------------------------------------------------------------]
D[---7h99------7h99------7h99------7h99------2h44-----2h44----0h22---0h22--]
A[-7-----10--7-----10--7-----10--7-----10--2-----5--2-----5-0-----3-0----3-]
E[-------------------------------------------------------------------------]


G[-----------------------------------------02320--2-2-2-3-3-3-2---------]
D[-2-2-2-3-3-3-2--21-0-----2-2-2-3-3-3-2--2-----------------------------]
A[--------------------30------------------------------------------------]
E[----------------------3-----------------------------------------------]

G[-----------------------------------------------------]
D[-2-2-2-3-3-3-2---------------------------------------]
A[-------------------------10---10----10---9--9--8--8--]
E[----------------------------10----10-------9-----8---]

G[----------------------------------------------------------------------]
D[---7h99-----7h99-----7h99-----7h99-------0h22----0h22---2h44----------]
A[-7-----10--7----10--7----10--7----10----0----3--0----3-2----5-3-3-2-2-]
E[----------------------------------------------------------------------]

G[-----------------------------------------------------]
D[---------------------0h22-----0h22-----2h44----------]
A[-7---7---7-7-7-7---0-----3--0-----3--2-----5-2-2-3-2-]
E[-----------------------------------------------------]

G[----------------------------------------------------------------------]
D[---7h99-----7h99-----7h99-----7h99-------0h22----0h22---2h44---2h44---]
A[-7-----10--7----10--7----10--7----10----0----3--0----3-2----5-2----5--]
E[----------------------------------------------------------------------]

G[-----------------------------------------------------]
D[---7h99-----7h99-----7h99-----7h99-----0h22----0h22--]
A[-7-----10--7----10--7----10--7----10--0----3--0----3-]
E[-----------------------------------------------------]

G[-----------------------------------------------------------------------]
D[-----------------------------------------------------------------------]
A[-3-3-2-2-7-777777-3-3-2-2-----------7-7--7-7--7-7--7-7--7-7--7-7--7-7--]
E[--------------------------0-000000-----7----7----7----7----7----7----7-]

G[-------------------------------------------------------------------]
D[-------------------------------------------------------------------]
A[-------------------10-101010101010-----------------7-7-7-7-7-7-7-7-]
E[-7-777777-8-888888-----------------10-101010101010-----------------]

                                          
G[-------------------------------------][-------------------------------]
D[-------------------------------------][--------------------------7788-]
A[-7--------7--------7--------7--------][----------------------7799-----]
E[---778855---778855---778855---778855-][777777777777777-777777---------]

G[-----------------------------------]
D[-9999999999999999999-9999999999-9--]
A[-----------------------------------]
E[-----------------------------------]

G[-------------------------------------][-------------------------------]
D[-------------------------------------][--------------------------7788-]
A[-7--------7--------7--------7--------][----------------------7799-----]
E[---778855---778855---778855---778855-][777777777777777-777777---------]

G[-----------------------------------]
D[-9999999999999999999-9999999999-9--]
A[-----------------------------------]
E[-----------------------------------]


G[-------------------------------------------------------------------------]
D[--7h9-7h9-----------------------------7h9-7h9----------------------------]
A[-7---7----7h9-7h9-8h10-8h10-3h5-3h5--7---7-----7h9-7h9-8h10-8h10-3h5-3h5-]
E[---------7---7---8----8----3---3--------------7---7---8----8----3---3----]

G[-------------------------------------------------------------------------]
D[------------------------------------------------------9-999999-10-101010-]
A[-7-777777-------------------10-101010101010--7-777777--------------------]
E[----------7-777777-8-888888----------------------------------------------]

G[-12-121212121212-----------------------------------]
D[---------------------------------------------------]
A[-----------------7------7------7------7-------7-7--]
E[------------------778855-778855-778855-778855------]





Comments


Popular Sublime tabs & chords
Don't Push 1 Bass Tabs
Scarlet Begonias Bass Tabs
What I Got 3 Bass Tabs
Ain't No Prophet Chords
Perfect World 1 Chords
Santeria 1 Chords
Chick On My Tip Tabs
Jailhouse 1 Tabs
Santaria Tabs
Tequilla Intro Tabs


Song lyrics



↑ Back to top | Tablatures and chords are parodies/interpretations of the original songs. You may use it for private study, scholarship, research or language learning purposes only
© 2014 AZChords.com Contact us | Privacy policy | DMCA | Add/correct tabs | Request tabs | Top 50 tabs