>
 >
Date Rape

Date Rape Bass Tabs

Sublime - Date Rape chords, tabs, tablatures, lyrics

Guitar lessons | Add/correct | Request | Top 50 tabs Artists:  A B C D E F G H I J K L M N O P Q R S T U V W X Y Z 0-9

Date Rape Bass Tabs – Sublime

CD, Sheet music, Poster

Do you like Date Rape? Share with your friends now
Bass TabsBass Tabs v2Bass Tabs v3Bass Tabs v4Bass Tabs v5ChordsTabsTabs v2Tabs v3Tabs v4Ukulele


Intro:
|----------------------------------------------------------------|
|----------------------------------------------------------------|
|---------------6-5-3------------------------------0-2-1---------|
|-0-0-0-1-1-1-0-------6-5-3----0-0-0-1-1-1-0---0-3-------3-------|

|-------------------------------|
|-------------------------------|
|-------------------------------|
|-5-5-5-6-6-6-5/--0-0-0-1-1-1-0-|

|---------------------------------------|
|---------------------------------------|
|-10-10----10----10-----9-9----8-8----7-|
|-------10----10-----10-----9------8----|

Verse 1:
|-----------------------------------------------------|
|---7/9-9-----------9-9--------7/9-9-----------9-9----|
|-7-------10---7-10-----10---7-------10---7-10-----10-|
|-----------------------------------------------------|

|--------------------------------------------------|
|--------------------------------------------------|
|------7-7------------7-7-------6-6--9-9-----------|
|-5--8-----8---5--8-8-----8---7----------7--8-8--7-|

|-----------------------------------------------------|
|---7/9-9-----------9-9--------7/9-9-----------9-9----|
|-7-------10---7-10-----10---7-------10---7-10-----10-|
|-----------------------------------------------------|

|----------------------------------------------------|
|----------------------------------------------------|
|------7-7------------7-7-------6-6--9-9-------------|
|-5--8-----8---5--8-8-----8---7----------7--8-8--7-5-|

|-----------------------------------------------------|
|---7/9-9-----------9-9--------7/9-9-----------9-9----|
|-7-------10---7-10-----10---7-------10---7-10-----10-|
|-----------------------------------------------------|

|-------------------------------------------------------------|
|-------------------------------------------------------------|
|-----6-6--9-9-------6-6--9-9------------7-7------------7-7---|
|---7----------7---7----------7---5--8-8-----8---5--8-8-----8-|

|-----------------------------------------------------|
|---7/9-9-----------9-9--------7/9-9-----------9-9----|
|-7-------10---7-10-----10---7-------10---7-10-----10-|
|-----------------------------------------------------|

|------------------------------------------------------------|
|------------------------------------------------------------|
|-------------------------------------------7-7-7-7--7-7-7-7-|
|-7-7--7-7-7--7-7-7--7-7-7--8-8-8-8--7-7-7-------------------|
|---------------------------------------------------|
|---------------------------------------------------|
|-----------------------------0h2-------------------|
|--8-8-8-8--7-7--0-0-0-0--0-0------0-0-0-0--0-0-0-0-|

|------------------------------------------------|
|-----------------------------------------7------|
|-7----7----7----7-7------7----7----7---7--------|
|----7----7----7-----7-------7----7---7------6/7-|

|------------------------------------------------------|
|------------------------------------------------------|
|------------------------------10-10-10-10-10-10-10-10-|
|-7--7-7-7-7-7--8--8-8-8-8h10--------------------------|
  
|-----------------------------------------------------------------|
|-----------------------------------------------------------------|
|---------------------------------------7--7--7--7---7--7--7-0--7-|
|-10-10-10-10-10-10-10-10---7-7-7-7-7-----------------------------|

|--------------------------------------------------------|
|--------------------------------------------------------|
|-7-----------------7-7----------------7-7---------------|
|----7-7--8-8--5-5------7-7--8-8--5-5------7-7--8-8--5-5-|
|---------------------------------------------------|
|---------------------------------------------------|
|-7-7-----------------------------------------------|
|-----7-7--8-8--5-5---7--7-7-7--7-7-7--7-7-7---8--7-|

|--------------------------------|
|--------------------------------|
|--------------------------------|
|-7--7-7-7--7-7-7--7/19---20--19-|

|-------------------------------------------|
|-------------------------------------------|
|-------------------------------------------|
|-19--19-19-19--19-19-19--19-19-19---20--19-|

Guitar Solo:
|-----------------------------------------------------|
|---7/9-9-----------9-9--------7/9-9-----------9-9----|
|-7-------10---7-10-----10---7-------10---7-10-----10-|
|-----------------------------------------------------|

|-----------------------------------------------------|
|---7/9-9-----------9-9--------7/9-9-----------9-9----|
|-7-------10---7-10-----10---7-------10---7-10-----10-|
|-----------------------------------------------------|

|-------------------------------------------------------------|
|-------------------------------------------------------------|
|-----6-6--9-9-------6-6--9-9------------7-7------------7-7---|
|---7----------7---7----------7---5--8-8-----8---5--8-8-----8-|

Bridge:
|----------------------------------------------------------------|
|-------------------9--7-6--10-9-8---------------------6-7-9-7-6-|
|-7-7-7-8-8-8-7---7------------------7-7-7-8-8-8-7---7-----------|
|----------------------------------------------------------------|

|-------------------------------|
|-------------------------------|
|-------------------------------|
|-5-5-5-6-6-6-5/--0-0-0-1-1-1-0-|

|---------------------------------------|
|---------------------------------------|
|-10-10----10----10-----9-9----8-8----7-|
|-------10----10-----10-----9------8----|
Verse 2:
|-----------------------------------------------------|
|---7/9-9-----------9-9--------7/9-9-----------9-9----|
|-7-------10---7-10-----10---7-------10---7-10-----10-|
|-----------------------------------------------------|

|----------------------------------------------------|
|----------------------------------------------------|
|------7-7------------7-7-------6-6--9-9-------------|
|-5--8-----8---5--8-8-----8---7----------7--8-8--7-5-|

|--------------------------------------------------------|
|--------------------------------------------------------|
|-7--7---7--7--7---7-------------------------------------|
|----------------7------5-5-5-5--5-5-5-5---7--7---8-8--7-|

|-----------------------------------------------------|
|---7/9-9-----------9-9--------7/9-9-----------9-9----|
|-7-------10---7-10-----10---7-------10---7-10-----10-|
|-----------------------------------------------------|

|---------------------------------------------------------|
|---------------------------------------------------------|
|-----6-6--9-9-------6-6--9-9------------7-7------------5-|
|---7----------7---7----------7---5--8-8-----8---5--7-8---|

|-----------------------------------------------------|
|---7/9-9-----------9-9--------7/9-9-----------9-9----|
|-7-------10---7-10-----10---7-------10---7-10-----10-|
|-----------------------------------------------------|

|------------------------------------------------------------|
|------------------------------------------------------------|
|-------------------------------------------7-7---7--7-7---7-|
|-7-7--7-7-7--7-7-7--7-7-7--8-8-8-8--7-7-7------7--------7---|
|---------------------------------------------------|
|---------------------------------------------------|
|---------------------------------------------------|
|--8-8-8-8--7-7--0-0-0-0--0-0-0-0--0-0-0-0--0-0-0-0-|

|------------------------------------------------|
|-----------------------------------------7------|
|-7----7----7----7-7------7----7----7---7--------|
|----7----7----7-----7-------7----7---7------6/7-|

|------------------------------------------------------|
|------------------------------------------------------|
|------------------------------10-10-10-10-10-10-10-10-|
|-7--7-7-7-7-7--8--8-8-8-8h10--------------------------|
  
|-----------------------------------------------------------------|
|-----------------------------------------------------------------|
|---------------------------------------7--7--7--7---7--7--7-7--7-|
|-10-10-10-10-10-10-10-10---7-7-7-7-7-----------------------------|

|--------------------------------------------------------|
|--------------------------------------------------------|
|-7-----------------7-7----------------7-7---------------|
|----7-7--8-8--5-5------7-7--8-8--5-5------7-7--8-8--5-5-|
|---------------------------------------------------|
|---------------------------------------------------|
|-7-7-----------------------------------------------|
|-----7-7--8-8--5-5---7--7-7-7--7-7-7--7-7-7---8--7-|

|--------------------------------|
|--------------------------------|
|--------------------------------|
|-7--7-7-7--7-7-7--7/19---20--19-|

|-------------------------------------------|
|-------------------------------------------|
|-------------------------------------------|
|-19--19-19-19--19-19-19--19-19-19---20--19-|

|--------------------------------------------------------|
|--------------------------------------------------------|
|-7-----------------7-7----------------7-7---------------|
|----7-7--8-8--5-5------7-7--8-8--5-5------7-7--8-8--5-5-|
|---------------------------------------------------|
|---------------------------------------------------|
|-7-7-----------------------------------------------|
|-----7-7--8-8--5-5---7--7-7-7--7-7-7--7-7-7---8--7-|

|----------------------------------------------------------------|
|----------------------------------------------------------------|
|----------------------------------------------------------------|
|-7--7-7-7--7-7-7--7-7-7---8--7----7--7-7-7--7-7-7--7-7-7---8--7-|
Outro:
|----------------------------------|
|-------9---------9----------------|
|-7--10-----7--10-------6--9-------|
|---------------------7--------7-7-|

|-------------------------------------|
|-----------------------12--10---9----|
|--7--10-----7--10---10------------10-|
|8---------8--------------------------|

|-------------------------------------------------------------------|
|-------9---------9------------------------------------9--12--9-----|
|-7--10-----7--10-------6--9-----------7--10--------10-----------10-|
|---------------------7--------7-7---8---------8-8------------------|

|--------------------------------------------------------|
|--------------------------------------------------------|
|-7-7-7-7--7-7-7-7----------------------------------7/10-|
|-------------------7-7-7-7--7-7-7-7---8-8-8-8--8-8------|

|--------------------------------------------------------|
|-------------------------------------7/9-9-9-9--9-9-9-9-|
|-10-10-10--10-10-10-10/--\7-7-7-7--7--------------------|
|--------------------------------------------------------|

|------------------------------------------------|
|-10-10-10-10--10-10-10-10--------9--------------|
|---------------------------10-10---10--10-10-10-|
|------------------------------------------------|

|---------------------------------------------------------|
|---------------------------------------------------------|
|-7----------------7---------------7----------------7---7-|
|----7---8---5--------7---8---5-------7---8---5-----------| 





Comments


Popular Sublime tabs & chords
Doin Time 2 Bass Tabs
Had A Dat Bass Tabs
Had A Dat 3 Bass Tabs
40 Oz. To Freedom Tabs
40 Oz. To Freedom 2 Tabs
Get Out! Tabs
Get Ready Tabs
What I Got 8 Tabs
Lou Dog Went To The Moon Intro Ukulele
Pool Shark Ukulele


Song lyrics



↑ Back to top | Tablatures and chords are parodies/interpretations of the original songs. You may use it for private study, scholarship, research or language learning purposes only
© 2014 AZChords.com Contact us | Privacy policy | DMCA | Add/correct tabs | Request tabs | Top 50 tabs