>
 >
Date Rape 2

Date Rape 2 Bass Tabs

Sublime - Date Rape 2 chords, tabs, tablatures, lyrics

Guitar lessons | Add/correct | Request | Top 50 tabs Artists:  A B C D E F G H I J K L M N O P Q R S T U V W X Y Z 0-9

Date Rape 2 Bass Tabs – Sublime

CD, Sheet music, Poster

Do you like Date Rape 2? Share with your friends now
Bass TabsBass Tabs v2Bass Tabs v3Bass Tabs v4Bass Tabs v5ChordsTabsTabs v2Tabs v3Tabs v4Ukulele
Sublime - Date Rape Bass Tab

Intro:

G---------------------------------------------------------------------------|
D-----------------------------------------------7-8-7-----------------------|
A---------------7-5------------------------7-10-------10\--0-0-0-1-1-1-1/12-|
E-0-0-0-1-1-1-0-----7-6-5-3--0-0-0-1-1-1-0----------------------------------|

G------------------------------------------------|
D------------------------------------------------|
A-----------------10-10---10---10---99-9-8--56---|
E-0-0-0-1-1-1-0--------10---10--10---------------|


Verse 1 (Lemme tell you bout a girl I know... 0:15)

G---------44-----------44----------44----------44-------------------------|
D-----5-7----5-----5-7----5----5-7----5----5-7----5--------22----------22-|
A--7------------7------------7-----------7-------------3-5----3----3-5----|
E----------------------------------------------------5-----------5--------|

G-----------------------------|
D----------44-----------------|
A-3----5-7----5---------------|
E----7----------8-8-7-3-------|


Repeat Verse One once, then as (her heart raced as he walked through the door... 0:35)

G-------44-----------44----------44----------44---------------------------|
D---5-7----5-----5-7----5----5-7----5----5-7----5--------22----------22---|
A-7------------7-----------7-----------7-------------3-5----3----3-5----3-|
E--------------------------------------------------5-----------5----------|

G--------------------------44----------44----------44----------44----------|
D-------44--------------5-7---5----5-7----5----5-7----5----5-7----5--------|
A---5-7----5--------5-7----------7-----------7-----------7-----------------|
E-7----------8-8-7---------------------------------------------------------|


Pre Chorus (One drink turned into 3 or 4... 0:49)

G---------------------------------------------------------|
D---------------------------2--2--------------------------|
A-2202-0202202-020-33332222---2-233332222------12---------|
E----------------------------------------000000--00000057-|


(Now babe, the time has come... 0:58)

G-----------------------------------------------------------------------|
D--------------------------------------------------------------12-12-12-|
A-7---7--7--77---7---7--7--77-------79-10-10-10-10-10-10-10-10----------|
E----7--7--7--7----7--7--7---6777777------------------------------------|

G----------------------|
D-12-12-12-12-12-99999-|
A----------------------|
E----------------------|

(Thats when things got out of control... 1:09)

G-------------------------------------------------|
D-2-2-2-2-2-2-2-2-2--00--22--00--2---00--22--00---|
A------------------22--00--22--00--22--00--22--00-|
E-------------------------------------------------|

G---------------------------0205-4444444444-5-4--|
D-------------------------02---------------------|
A-022022202202203222022202-----------------------|
E------------------------------------------------|


(If it wasn't for date rape I'd never get laid....)

Guitar solo (1:28):

G---------44---|
D-----5-7----5-|x7
A--7-----------|
E--------------|

G----44--------------------------------------|
D--5----5--------44----------44--------22----|
A-7-----------5-7----5----5-7----5---35----3-|
E-----------7-----------7----------5---------|

G---------------------------------------------------------|
D-----------------------------------------------7-8-7-----|
A---------------7-5------------------------7-10-------10\-|
E-0-0-0-1-1-1-0-----7-6-5-3--0-0-0-1-1-1-0----------------|

G---------------------------------------------------------------|
D---------------------------------------------------------------|
A-0-0-0-1-1-1-1/12-----------------10-10---10---10---99-9-8--56-|
E------------------0-0-0-1-1-1-0--------10---10--10-------------|


Verse 2:(He finished up, he started the car... 1:57)

G---------44---|
D-----5-7----5-|x4
A--7-----------|
E--------------|

G-----------|-----------------------------------------------------------|
D------22---|x2------44-------------------------------------------------|
A---3-5----3|----5-7----5-------5-7---7---7--7--7--7-000000002-2-2/3-2--|
E-5---------|---7----------8-8-7----------------------------------------|

G---------44---|
D-----5-7----5-|x4
A--7-----------|
E--------------|

G--------------|
D---------44---|x4
A-----5-7----5-|
E--7-----------|

G------------------------------44----------44----------44----------44---|
D------22------------------5-7----5----5-7----5----5-7----5----5-7----5-|
A---35----3--------3--5--7-----------7-----------7-----------7----------|
E-5----------5--7-------------------------------------------------------|


(The Judge knew he was full of shit... 2:26)

G-----------------------------------------------------------------------|
D---------------------------2--2--2-----------2------------------22-----|
A-2202-0202202-020-33332222---2--2-233332222---------------12-----------|
E-------------------------------------------00-0-000-000-00---0------00-|

G-------------------------------------7777777744444-|
D-22------22-----22---------2455555555--------------|
A-------------------0-222222------------------------|
E-----00------00---0--------------------------------|

(Thats when things got out of control...2:45)

G---------------------------------------------------|
D-2-2-2-2-2-2-2-2-2----00--22--00--2---00--22--00---|
A--------------------22--00--22--00--22--00--22--00-|
E---------------------------------------------------|

G---------------------------0205-4444444444-5-4--|
D-------------------------02---------------------|
A-022022202202203222022202-----------------------|
E------------------------------------------------|


(...even though he now takes it, in the behind. 3:03)

G-------------------------------------------------------------0205-|
D-2---00--22--00--2---00--22--00---------------------------02------|
A---22--00--22--00--22--00--22--00-022022202202203222022202--------|
E------------------------------------------------------------------|

G-0205-4444444444-5-4-|
D---------------------|
A---------------------|
E---------------------|


(...even though he now takes it, in the behind, DATE RAPE! 3:15)

G------4------4----------------------------------5-7---------4-----4--|
D-----5------5-------4------4------5------5-5--7-----7-5----5-----5---|
A--7------7---------5------5------7------7---------------7-----7------|
E----------------7------7------8------8-------------------------------|

G--------------------------------------------|
D-----4------4------5------5--7--5-----------|
A----5------5------7------7--------7-6-5-----|
E-7------7------8------8-----------------7---|


(la la le la la... 3:24)

G---------------------------------------------------|
D---------------------------------------------------|
A-7-777777-----------------79-10-10-10-10-10-10-12\-|
E----------77-5-7-557888888-------------------------|

G-----------------------------------------------------------|
D-----5-7-9-999-999-10-10-10-10-10-10-10-10-----12----------|
A-7-77-------------------------------------10-10--10-10-10\-|
E-----------------------------------------------------------|


Outro (3:33)

G---------------------------------------------|
D---------------------------------------------|
A--7----5----7----5----7----5----7----5---77\-|
E----77---5----77---5----77---5----77---5-----|





Comments


Popular Sublime tabs & chords
40 Oz. To Freedom Bass Tabs
D.J.S Bass Tabs
Falling Idols Bass Tabs
Seed 2 Bass Tabs
Garden Grove 1 Drum Tabs
Hope 1 Tabs
No Woman No Cry 2 Tabs
Pawn Shop 3 Tabs
Santeria 10 Tabs
What I Got Ukulele


Song lyrics



↑ Back to top | Tablatures and chords are parodies/interpretations of the original songs. You may use it for private study, scholarship, research or language learning purposes only
© 2014 AZChords.com Contact us | Privacy policy | DMCA | Add/correct tabs | Request tabs | Top 50 tabs