» » »

Strong Bad, Trogdor Tabs (ver.1)

Artists:  A B C D E F G H I J K L M N O P Q R S T U V W X Y Z # 

Trogdor Tabs (ver.1)

Strong Bad Tabs
 Rating:
3.1/5 (27 votes)
Trogdor lessons Tabs too difficult? Try these video lessons and learn fast
1
                ---------------------------------------------------
                  TROGDOR-StrongBad
---------------------------------------------------
Drop D tuning: (low to high D-A-D-G-A-B-e)
(Part of Solo from tacobell444, so don't say I stole your thing man!!!!)


INTRO/CHORUS
e||----------------------|-----------------|------------------|------------------||
B||----------------------|-----------------|------------------|------------------||
G||----------------------|-----------------|------------------|------------------||
D||----0-0-0-8~-0-0-0-5~-|0-0-0-8-0-5-0-3/5|0-0-0-8~-0-0-0-5~-|0-0-0-8-0-5-0-3/5-||
A||----0-0-0-8~-0-0-0-5~-|0-0-0-8-0-5-0-3/5|0-0-0-8~-0-0-0-5~-|0-0-0-8-0-5-0-3/5-||
D||----0-0-0-8~-0-0-0-5~-|0-0-0-8-0-5-0-3/5|0-0-0-8~-0-0-0-5~-|0-0-0-8-0-5-0-3/5-||


VERSE
e||-----------------|----------------|----------------|-----------------|----------------|------------------|
B||-----------------|----------------|----------------|-----------------|----------------|------------------|
G||-----------------|----------------|----------------|-----------------|----------------|------------------|
D||0-0-8-0-0-10-0-0-|8-0-0-10-0-0-8~-|8~-0-0-10-0-0-8-|0-0-10-0-0-8-0-0-|10~-10~-0-0-8-0-|0-10-0-0-8-0-0-10-|
A||0-0-8-0-0-10-0-0-|8-0-0-10-0-0-8~-|8~-0-0-10-0-0-8-|0-0-10-0-0-8-0-0-|10~-10~-0-0-8-0-|0-10-0-0-8-0-0-10-|
D||0-0-8-0-0-10-0-0-|8-0-0-10-0-0-8~-|8~-0-0-10-0-0-8-|0-0-10-0-0-8-0-0-|10~-10~-0-0-8-0-|0-10-0-0-8-0-0-10-|
   . .   . .    . .    . .    . .        . .    . .    . .    . .   . .          . .   .  .    . .   . .

 ||--------------|-----------------|---------------||
 ||--------------|-----------------|---------------||
 ||--------------|-----------------|---------------||
 ||0-0-8~-8~-0-0-|8-0-0-10-0-0-8-0-|0-10-0-0-8~-8~-||
 ||0-0-8~-8~-0-0-|8-0-0-10-0-0-8-0-|0-10-0-0-8~-8~-||
 ||0-0-8~-8~-0-0-|8-0-0-10-0-0-8-0-|0-10-0-0-8~-8~-||
   . .       . .    . .    . .   .  .    . .

INTRO/CHORUS

e||------------------|-----------------|------------------|------------------||
B||------------------|-----------------|------------------|------------------||
G||------------------|-----------------|------------------|------------------||
D||0-0-0-8~-0-0-0-5~-|0-0-0-8-0-5-0-3/5|0-0-0-8~-0-0-0-5~-|0-0-0-8-0-5-0-3/5-||
A||0-0-0-8~-0-0-0-5~-|0-0-0-8-0-5-0-3/5|0-0-0-8~-0-0-0-5~-|0-0-0-8-0-5-0-3/5-||
D||0-0-0-8~-0-0-0-5~-|0-0-0-8-0-5-0-3/5|0-0-0-8~-0-0-0-5~-|0-0-0-8-0-5-0-3/5-||


BRIDGE
e||----------------|---------------|----------------|---------------|----------------|---------------|
B||----------------|---------------|----------------|---------------|----------------|---------------|
G||----------------|---------------|----------------|---------------|----------------|---------------|
D||0-3-5-0-3-5-0-3-|5-0-3-5-0-3-5~-|0-3-5-0-3-5-0-3-|5-0-3-5-0-3-5~-|0-3-5-0-3-5-0-3-|5-0-3-5-0-3-5~-|
A||0-3-5-0-3-5-0-3-|5-0-3-5-0-3-5~-|0-3-5-0-3-5-0-3-|5-0-3-5-0-3-5~-|0-3-5-0-3-5-0-3-|5-0-3-5-0-3-5~-|
D||0-3-5-0-3-5-0-3-|5-0-3-5-0-3-5~-|0-3-5-0-3-5-0-3-|5-0-3-5-0-3-5~-|0-3-5-0-3-5-0-3-|5-0-3-5-0-3-5~-|

 ||------------||
 ||------------||
 ||------------||
 ||0-3-5-0-3-5-||
 ||0-3-5-0-3-5-||
 ||0-3-5-0-3-5-||

INTRO/CHORUS

e||------------------|-----------------|------------------|------------------||
B||------------------|-----------------|------------------|------------------||
G||------------------|-----------------|------------------|------------------||
D||0-0-0-8~-0-0-0-5~-|0-0-0-8-0-5-0-3/5|0-0-0-8~-0-0-0-5~-|0-0-0-8-0-5-0-3/5-||
A||0-0-0-8~-0-0-0-5~-|0-0-0-8-0-5-0-3/5|0-0-0-8~-0-0-0-5~-|0-0-0-8-0-5-0-3/5-||
D||0-0-0-8~-0-0-0-5~-|0-0-0-8-0-5-0-3/5|0-0-0-8~-0-0-0-5~-|0-0-0-8-0-5-0-3/5-||

(This is where the Internet version cuts off!)

SOLO
   Q   S  S  S  S  S  S  S  S  Q                              (tacobell444
e||--------------------------------|                         |------------------------------|
B||--------------------------------|                         |------------------------------|
G||--------------------------------|(Guitar 2 plays its part)|------12----------------12----|
D||----19-17-15-14-----------------|                         |12-15----15-12-15-12-15----15~|
A||17~-------------17-15-14-15-17~-|                         |------------------------------|
D||--------------------------------|                         |------------------------------|

 ||--------------------------------------|13-15-13-12-13-15-13-12-13-15-13-12-13-15-13-15-13-15-13-12|
 ||10131415--10131415--10131415--10131415|-----------------------------------------------------------|
 ||--------------------------------------|-----------------------------------------------------------|
 ||--------------------------------------|-----------------------------------------------------------|
 ||--------------------------------------|-----------------------------------------------------------|
 ||--------------------------------------|-----------------------------------------------------------|
                                                                                         
          end tacobell444)
 ||15-17-15-14-15-17-15-14-15-17-15-14-15-17-15-14|19-19-19-19-21-21-21-21-22-22-22-22-22-22-22-22-22~~21-19-17-----||
 ||-----------------------------------------------|-------------------------------------------------------------16\0||
 ||-----------------------------------------------|-----------------------------------------------------------------||
 ||-----------------------------------------------|-----------------------------------------------------------------||
 ||-----------------------------------------------|-----------------------------------------------------------------||
 ||-----------------------------------------------|-----------------------------------------------------------------||

VERSE
e||------|-------------|-----------------|----------------|------------------|
B||------|-------------|-----------------|----------------|------------------|
G||------|-------------|-----------------|----------------|------------------|
D||8~-8~-|0-0-10-0-0-8-|0-0-10-0-0-8-0-0-|10~-10~-0-0-8-0-|0-10-0-0-8-0-0-10-|
A||8~-8~-|0-0-10-0-0-8-|0-0-10-0-0-8-0-0-|10~-10~-0-0-8-0-|0-10-0-0-8-0-0-10-|
D||8~-8~-|0-0-10-0-0-8-|0-0-10-0-0-8-0-0-|10~-10~-0-0-8-0-|0-10-0-0-8-0-0-10-|

 ||--------------|-----------------|---------------||
 ||--------------|-----------------|---------------||
 ||--------------|-----------------|---------------||
 ||0-0-8~-8~-0-0-|8-0-0-10-0-0-8-0-|0-10-0-0-8~-8~-||
 ||0-0-8~-8~-0-0-|8-0-0-10-0-0-8-0-|0-10-0-0-8~-8~-||
 ||0-0-8~-8~-0-0-|8-0-0-10-0-0-8-0-|0-10-0-0-8~-8~-||

INTRO/CHORUS

e||----------------------|-----------------|------------------|------------------||
B||----------------------|-----------------|------------------|------------------||
G||----------------------|-----------------|------------------|------------------||
D||----0-0-0-8~-0-0-0-5~-|0-0-0-8-0-5-0-3/5|0-0-0-8~-0-0-0-5~-|0-0-0-8-0-5-0-3/5-||
A||----0-0-0-8~-0-0-0-5~-|0-0-0-8-0-5-0-3/5|0-0-0-8~-0-0-0-5~-|0-0-0-8-0-5-0-3/5-||
D||----0-0-0-8~-0-0-0-5~-|0-0-0-8-0-5-0-3/5|0-0-0-8~-0-0-0-5~-|0-0-0-8-0-5-0-3/5-||
            
Submit corrections

comments powered by Disqus
↑ Back to top | Strong Bad Tabs for Trogdor. Lyrics for acoustic guitar and electric guitar. 1 Tablatures and chords are parodies/interpretations of the original songs. You may use it for private study, scholarship, research or language learning purposes only