» » »

Strong Bad, Trogdor Bass tabs (ver.1)

Artists:  A B C D E F G H I J K L M N O P Q R S T U V W X Y Z # 

Trogdor Bass tabs (ver.1)

Strong Bad Tabs
Rating:
5/5 (4 votes)
Trogdor lessons Tabs too difficult? Try these video lessons and learn fast
                

 The Previous tab for this Song was alright but had a few Errors and wasn't properly 
I'm Pretty sure this Tab is Perfect though.

                                    Enjoy

 The Song is in Drop D
        E => D


   Intro:

G|---------------------------------------------------------------------------|
D|---------------------------------------------------------------------------|
A|---------------------------------------------------------------------------|
D|-0000-8-0000-5-0000-8-0-5-0-3-5-0000-8-0000-5-0000-8-0-5-0-3-5-------------|

   Verse: X2

G|---------------------------------------------------------------------------|
D|---------------------------------------------------------------------------|
A|---------------------------------------------------------------------------|
D|-0-0-8-0-0-10-0-0-8-0-0-10-0-0-8--8--0-0-8-0-0-10-0-0-8-0-0-10-0-0-8--8----|

   Chorus:

G|---------------------------------------------------------------------------|
D|---------------------------------------------------------------------------|
A|---------------------------------------------------------------------------|
D|-0000-8-0000-5-0000-8-0-5-0-3-5-0000-8-0000-5-0000-8-0-5-0-3-5-------------|

  Bridge:

G|---------------------------------------------------------------------------|
D|---------------------------------------------------------------------------|
A|---------------------------------------------------------------------------|
D|-0-3-5-0-3-5-0-3-5-0-3-5-0-3-5--0-3-5-0-3-5-0-3-5-0-3-5-0-3-5--------------|

G|---------------------------------------------------------------------------|
D|---------------------------------------------------------------------------|
A|---------------------------------------------------------------------------|
D|-0-3-5-0-3-5-0-3-5-0-3-5-0-3-5--0-3-5-0-3-5-0000-8-0000-5-0000-8-0-5-0-3-5-|

G|---------------------------------------------------------------------------|
D|---------------------------------------------------------------------------|
A|---------------------------------------------------------------------------|
D|-0000-8-0000-5-0000-8-0-5-0-3-5--------------------------------------------|

   Guitar Solo: X2

G|---------------------------------------------------------------------------|
D|---------------------------------------------------------------------------|
A|---------------------------------------------------------------------------|
D|-0-0-8-0-0-10-0-0-8-0-0-10-0-0-8--8--0-0-8-0-0-10-0-0-8-0-0-10-0-0-8--8----|

   Verse: X2

G|---------------------------------------------------------------------------|
D|---------------------------------------------------------------------------|
A|---------------------------------------------------------------------------|
D|-0-0-8-0-0-10-0-0-8-0-0-10-0-0-8--8--0-0-8-0-0-10-0-0-8-0-0-10-0-0-8--8----|

   Chorus/Outro:

G|---------------------------------------------------------------------------|
D|---------------------------------------------------------------------------|
A|---------------------------------------------------------------------------|
D|-0000-8-0000-5-0000-8-0-5-0-3-5-0000-8-0000-5-0000-8-0-5-0-3-5-------------|
            
Submit corrections

comments powered by Disqus
↑ Back to top | Strong Bad Bass for Trogdor. Lyrics for acoustic guitar and electric guitar. Tablatures and chords are parodies/interpretations of the original songs. You may use it for private study, scholarship, research or language learning purposes only