» » »

Strong Bad, Trogdor Bass tabs (ver.2)

Artists:  A B C D E F G H I J K L M N O P Q R S T U V W X Y Z # 

Trogdor Bass tabs (ver.2)

Strong Bad Tabs
Rating:
4/5 (4 votes)
Trogdor lessons Tabs too difficult? Try these video lessons and learn fast
                
Intro                             x2
G|-------------------------------|
D|-------------------------------|
A|-------------------------------|
D|-000-8--000-5--000-8-0-5-0-3-5-|
   
Verse                                 x4
G|-----------------------------------|
D|-----------------------------------|
A|-----------------------------------|
D|-0-0-8-0-0-10-0-0-8-0-0-10-0-0-3-3-|

Chorus                            x2
G|-------------------------------|
D|-------------------------------|
A|-------------------------------|
D|-000-8--000-5--000-8-0-5-0-3-5-|

Bridge                             x3
G|--------------------------------|
D|--------------------------------|
A|--------------------------------|
D|-0-3-5-0-3-5-0-3-5-0-3-5-0-3-5~-|

Bridge Ending 
G|-------------|
D|-------------|
A|-------------|
D|-0-3-5-0-3-5-|

Interlude                         x2
G|-------------------------------|
D|-------------------------------|
A|-------------------------------|
D|-000-8--000-5--000-8-0-5-0-3-5-|

Bass During Dueling Guitar Solos      x4
G|-----------------------------------|
D|-----------------------------------|
A|-----------------------------------|
D|-0-0-8-0-0-10-0-0-8-0-0-10-0-0-3-3-|

Verse                                 x4
G|-----------------------------------|
D|-----------------------------------|
A|-----------------------------------|
D|-0-0-8-0-0-10-0-0-8-0-0-10-0-0-3-3-|

Chorus                            x2
G|-------------------------------|
D|-------------------------------|
A|-------------------------------|
D|-000-8--000-5--000-8-0-5-0-3-5-|


And Then Trogdor Comes In The Niiiight!
I'm pretty sure this tab is perfect, please rate and enjoy!
            

comments powered by Disqus
↑ Back to top | Strong Bad Bass for Trogdor. Lyrics for acoustic guitar and electric guitar. Tablatures and chords are parodies/interpretations of the original songs. You may use it for private study, scholarship, research or language learning purposes only