» » »

Strong Bad, Trogdor Tabs (ver.3)

Artists:  A B C D E F G H I J K L M N O P Q R S T U V W X Y Z # 

Trogdor Tabs (ver.3)

Strong Bad Tabs
 Rating:
4/5 (9 votes)
Trogdor lessons Tabs too difficult? Try these video lessons and learn fast
1
                all in all, I'd say this is either right or really close to it
drop D


        "TROGDOOOOOR!" riff (chorus)
e|-------------------------------------------|
b|-------------------------------------------|
g|-------------------------------------------|
d|0-0-0-0-8---0-0-0-0-5--0-0-0-0-8-0-5-0-3-h5|
a|0-0-0-0-8---0-0-0-0-5--0-0-0-0-8-0-5-0-3-h5|
d|0-0-0-0-8---0-0-0-0-5--0-0-0-0-8-0-5-0-3-h5| (x2)


         verse  (repeat as necessary)
e|--------------------------------------------------|
b|--------------------------------------------------|
g|--------------------------------------------------|
d|0--0--8--0--0--10--0--0--8--0--0--10--0--0--8*--8*|
a|0--0--8--0--0--10--0--0--8--0--0--10--0--0--8*--8*|
d|0--0--8--0--0--10--0--0--8--0--0--10--0--0--8*--8*|


                           "burnination" bridge
        repeat 3 times                              then play this
e|--------------------------------------------|----------------|
b|--------------------------------------------|----------------|
g|--------------------------------------------|----------------|
d|0--3--5--0--3--5--0--3--5--0--3--5--0--3--5*|0--3--5--0--3--5|
a|0--3--5--0--3--5--0--3--5--0--3--5--0--3--5*|0--3--5--0--3--5|
d|0--3--5--0--3--5--0--3--5--0--3--5--0--3--5*|0--3--5--0--3--5|


 ok, the verse, chorus, and bridge were the easy parts, now here's the solo
  
     part 1 
e|----------------------------------|
b|----------------------------------|
g|----------------------------------|
d|----19-15-17-14-15-12-------------|
a|17*-------------------19-15-15/17*|
d|----------------------------------|

     part 2
e|------------------------------|
b|------------------------------|
g|------12----------------12----|
d|12-15----15-12-15-12-15----15*|
a|------------------------------|
d|------------------------------|

     part 3 (those are 10s, 13s 14s, and 15s...)
e|--------------------------------------|
b|10131415--10131415--10131415--10131415|
g|--------------------------------------|
d|--------------------------------------|
a|--------------------------------------|
d|--------------------------------------|

      part 4  
(play this faster than it shows, i just spaced the numbers for easy reading)
e|13--13--13--13--13--12--12--12|13-15-13-12-13-15-13-12-13-15-13-12-13-15-13-15-13-12|
b|------------------------------|-----------------------------------------------------|
g|------------------------------|-----------------------------------------------------|
d|------------------------------|-----------------------------------------------------|
a|------------------------------|-----------------------------------------------------|
d|------------------------------|-----------------------------------------------------|

e|15-17-15-14-15-17-15-14-15-17-15-14-15-17-15-14|
b|-----------------------------------------------|
g|-----------------------------------------------|
d|-----------------------------------------------|
a|-----------------------------------------------|
d|-----------------------------------------------|

    play this part with intense speed, its only spaced for easy reading
e|19-19-19-19-21-21-21-21-22-22-22-22-22-22-22-22-22*---------|
b|------------------------------------------------------------|
g|--------------------------------------------------------16\0|
d|------------------------------------------------------------|
a|------------------------------------------------------------|
d|------------------------------------------------------------|

order:

TROGDOR chorus
verse
TROGDOR chorus
burnination bridge
TROGDOR chorus
solo
verse
TROGDOR chorus


and that's trogdor... the solo might need tweaked a little bit, but that's basically it.
            
Submit corrections

comments powered by Disqus
↑ Back to top | Strong Bad Tabs for Trogdor. Lyrics for acoustic guitar and electric guitar. 1 Tablatures and chords are parodies/interpretations of the original songs. You may use it for private study, scholarship, research or language learning purposes only