» » »

Stone Sour, Get Inside Tabs (ver.3)

Artists:  A B C D E F G H I J K L M N O P Q R S T U V W X Y Z # 

Get Inside Tabs (ver.3)

Stone Sour Tabs
 Rating:
4/5 (4 votes)
Get Inside lessons Tabs too difficult? Try these video lessons and learn fast
1
                its a tab that needs spreading! anyway dont rate it unless you can play 
it pretty well and still think it sounds wrong! i have the rest of the 
song but i guess you can get them from other tabs!


Tuning : B-F#-B-E-G#-C#

C#------------17h21p17-----------------20p17----------------------
G#----------------------22p18-----------------22p18---------------
E-----17h19--------------------19-17------------------19-17-19----
B-----------------------------------------------------------------
F#----------------------------------------------------------------
B-----------------------------------------------------------------

C#----------------------------------------------------------------
G#----------13----------------------------------------------------
E-----12-14----14-----12-12-12---17--14---------------------------
B---------------------12-12-12---17--14---------------------------
F#----------------------------------------------------------------
B-----------------------------------------------------------------

Really fast bit

C#-------------------------------------------------------12-14-15-
G#---13-15-13-12----------13-15-13-12-----------12-13-15----------
E----------------14-13-14-------------14-12-14--------------------
B-----------------------------------------------------------------
F#----------------------------------------------------------------
B-----------------------------------------------------------------

C#---14h15p14-12--------------------------------------------------
G#---------------13-12----------12-15p13p12----------12h13h15-----
E----------------------14-13-14-------------14-13-14--------------
B-----------------------------------------------------------------
F#----------------------------------------------------------------
B-----------------------------------------------------------------

C#--------------------------12-14-15-17--19b----------------------
G#---13-12--------12-13-15--------------------15-13-12-13-15------
E----------14-14--------------------------------------------------
B-----------------------------------------------------------------
F#----------------------------------------------------------------
B-----------------------------------------------------------------

C#---13-15-13------------------------12-13-15--17h20 23b----------
G#---------------------15-12-14-16--------------------------------
E--------------14-------------------------------------------------
B-----------------16----------------------------------------------
F#----------------------------------------------------------------
B-----------------------------------------------------------------

Also although this is from the tab book, i would very much like to hear the version that "Omarjunior" did on the corrections but you can't make it out. Try posting under a different name!
            
Submit corrections

comments powered by Disqus
↑ Back to top | Stone Sour Tabs for Get Inside. Lyrics for acoustic guitar and electric guitar. 1 Tablatures and chords are parodies/interpretations of the original songs. You may use it for private study, scholarship, research or language learning purposes only