>
 >
Get Inside

Get Inside Guitar Tabs

Stone  Sour - Get Inside chords, tabs, tablatures, lyrics

Guitar lessons | Add/correct | Request | Top 50 tabs Artists:  A B C D E F G H I J K L M N O P Q R S T U V W X Y Z 0-9

Get Inside Guitar Tabs – Stone Sour

CD, Sheet music, Poster

Do you like Get Inside? Share with your friends now
Bass TabsBass Tabs v2Bass Tabs v3TabsTabs v2Tabs v3Tabs v4Tabs v5Tabs v6Tabs v7Tabs v8
Tuning: E A D G B e (Low to high)


Legend:
b=bend
| [P.M.] |=Palm Muted
v=Vibrato



Intro 4x (both guitars)
e|------------------------------------------------------------------------------|
B|------------------------------------------------------------------------------|
G|------------------------------------------------------------------------------|
D|------------------------------------------------------------------------4--5--|  
A|------------------------------------------------------------------------4--5--|
E|------3--2--1--0--3--2--1--0--3--2--0--3--2--0--3--2--1--0--3--2--1--0--2--3--|

       |--------------------------- [P.M.] -----------------------------|



Riff1 2x (both guitars)
e|-------------|-----------------------------------------------------------------------------------------------------------|
B|-------------|-----------------------------------------------------------------------------------------------------------|
G|-------------|-----------------------------------------------------------------------------------------------------------|
D|-------5--4--|--2-------------5--2-------------5--------------5--------------2-------------5--2----------------------b5v-|
A|-------5--4--|--2-------------5--2-------------5--------------5--------------2-------------5--2---------------3--5-------|
E|-------3--2--|--0---0--0--0---3--0---0--0--0---3------0-------3------0-------0---0--0--0---3--0---0--0--0----------------|
               |                                                                                                                                                                     
      only 1.  |    | [P.M.] |        | [P.M.] |                                 | P.M.] |          | [P.M.] |                  
        time   |                                                                                                                                                                   


Riff2 2x (both guitars)
e|------------------------------------------------------------------------------------------------------|
B|------------------------------------------------------------------------------------------------------|
G|------------------------------------------------------------------------------------------------------|
D|-------2--2-----2--2--2--2----2--2----2--5--7----2--2-----2--2--2--2----2--2----2------------5--------|
A|-------2--2-----2--2--2--2----2--2----2--5--7----2--2-----2--2--2--2----2--2----2---5--3-------3v-----|
E|-------0--0-----0--0--0--0----0--0----0--3--5----0--0-----0--0--0--0----0--0----0---------------------|

        |------------ [P.M.] ------------|        |------------ [P.M.] ------------|

Riff3 2x (both guitars)
e|----------------------------------------------------------|
B|----------------------------------------------------------|
G|-------7---5---7---5--7---5----7--5-----------7--5v-------|
D|-------7---5---7---5--7---5------------7--5---------------|
A|-------5---3---5---3--5---3-------------------------------|
E|----------------------------------------------------------|
                               |[P.M.]|   

Riff4 4x (both guitars)
e|-------------------------------------------------|
B|-------------------------------------------------|
G|-------------------------------------------------|
D|-------2--5--2------5--4--5--7-------------------|
A|-------2--5--2------5--4--5--7-------------------|
E|-------0--3--0------3--2--3--5----3--2--1--0-----|

Riff1 2x (both guitars)
e|-----------------------------------------------------------------------------------------------------------|
B|-----------------------------------------------------------------------------------------------------------|
G|-----------------------------------------------------------------------------------------------------------|
D|--2-------------5--2-------------5--------------5--------------2-------------5--2----------------------b5v-|
A|--2-------------5--2-------------5--------------5--------------2-------------5--2---------------3--5-------|
E|--0---0--0--0---3--0---0--0--0---3------0-------3------0-------0---0--0--0---3--0---0--0--0----------------|
                                                                                                                                                                                           
      | [P.M.] |       | [P.M.] |                                   | [P.M.] |       | [P.M.] |                  
                                                                                                                                                                   
Riff2 2x (both guitars)
e|-----------------------------------------------------------------------------------------------------|
B|-----------------------------------------------------------------------------------------------------|
G|-----------------------------------------------------------------------------------------------------|
D|-------2--2-----2--2--2--2----2--2----2--5--7----2--2-----2--2--2--2----2--2----2------------5-------|
A|-------2--2-----2--2--2--2----2--2----2--5--7----2--2-----2--2--2--2----2--2----2---5--3-------3v----|
E|-------0--0-----0--0--0--0----0--0----0--3--5----0--0-----0--0--0--0----0--0----0--------------------|

        |------------ [P.M.] ------------|        |------------- [P.M.] -----------|                             

Riff3 2x (both guitars)
e|-------------------------------------------------------------|
B|-------------------------------------------------------------|
G|-------7---5---7---5--7---5----7--5-----------7--5v----------|
D|-------7---5---7---5--7---5-------------7--5-----------------|
A|-------5---3---5---3--5---3----------------------------------|
E|-------------------------------------------------------------|
                              |[P.M.]|   

Riff4 4x (both guitars)
e|------------------------------------------------------|
B|------------------------------------------------------|
G|------------------------------------------------------|
D|-------2--5--2------5--4--5--7------------------------|
A|-------2--5--2------5--4--5--7------------------------|
E|-------0--3--0------3--2--3--5----3--2--1--0----------|

Riff5a 4x (both guitars)
e|-----------------------------------|
B|-----------------------------------|
G|-----------------------------------|
D|-----------------------------------|
A|-----------------------------------|
E|------5--4--3--0--3--2--1--0-------|

     |--------- [P.M.] ---------|

Riff5b 4x (both guitars)
e|-----------------------------------|
B|-----------------------------------|
G|-----------------------------------|
D|-----------------------------------|
A|-----------------------------------|
E|------5--4--3--0--3--2--1--0-------|

I donīt know the solo yet but Iīm working on it.

Riff1 2x (Jim Root)
e|-----------------------------------------------------------------------------------------------------------|
B|-----------------------------------------------------------------------------------------------------------|
G|-----------------------------------------------------------------------------------------------------------|
D|--2-------------5--2-------------5--------------5--------------2-------------5--2----------------------b5v-|
A|--2-------------5--2-------------5--------------5--------------2-------------5--2---------------3--5-------|
E|--0---0--0--0---3--0---0--0--0---3------0-------3------0-------0---0--0--0---3--0---0--0--0----------------|
                                                                                                                                                                                           
       | [P.M.] |      | [P.M.] |                                   | [P.M.] |      | [P.M.] |     

Riff2 2x (both guitars)
e|--------------------------------------------------------------------------------------------------|
B|--------------------------------------------------------------------------------------------------|
G|--------------------------------------------------------------------------------------------------|
D|-------2--2-----2--2--2--2----2--2----2--5--7----2--2-----2--2--2--2----2--2----2------------5----|
A|-------2--2-----2--2--2--2----2--2----2--5--7----2--2-----2--2--2--2----2--2----2---5--3-------3v-|
E|-------0--0-----0--0--0--0----0--0----0--3--5----0--0-----0--0--0--0----0--0----0-----------------|

        |------------ [P.M.] ------------|        |------------- [P.M.] ----------|                             

Riff3 2x (both guitars)
e|-------------------------------------------------------|
B|-------------------------------------------------------|
G|-------7---5---7---5--7---5----7--5-----------7--5v----|
D|-------7---5---7---5--7---5-------------7--5-----------|
A|-------5---3---5---3--5---3----------------------------|
E|-------------------------------------------------------|
                               |[P.M.]|   
             
Riff4 4x (both guitars)
e|----------------------------------------------------------|
B|----------------------------------------------------------|
G|----------------------------------------------------------|
D|-------2--5--2------5--4--5--7----------------------------|
A|-------2--5--2------5--4--5--7----------------------------|
E|-------0--3--0------3--2--3--5----3--2--1--0--------------|

Outro 4x (both guitars)
e|------------------------------------------------------------------------------|
B|------------------------------------------------------------------------------|
G|------------------------------------------------------------------------------|
D|------------------------------------------------------------------------4--5--|  
A|------------------------------------------------------------------------4--5--|
E|------3--2--1--0--3--2--1--0--3--2--0--3--2--0--3--2--1--0--3--2--1--0--2--3--|

       |------------------------- [P.M.] ------------------------------|





Comments


Popular Stone Sour tabs & chords
Through Glass 3 Chords
3030-150 4 Tabs
Freeze Dry Seal Tabs
Hesitate 6 Tabs
Inhale The Right One Tabs
Reborn Tabs
Take A Number Tabs
Imperfect Ukulele
Stalemate Ukulele
Wicked Game Ukulele


Song lyrics



↑ Back to top | Tablatures and chords are parodies/interpretations of the original songs. You may use it for private study, scholarship, research or language learning purposes only
© 2014 AZChords.com Contact us | Privacy policy | DMCA | Add/correct tabs | Request tabs | Top 50 tabs